PrimaNota.ru - самый крупный в мире бесплатный архив песенных текстов, аккордов, табулатур и нот


Washya - 80s - таба, видео

Регистрация Запомнить меня
Войти через:  Facebook Google Twitter Vk Yandex Mail.ru

Washya - 80s - таба, видео

Печатать
Просмотров: 78
------------------------------------------------------------------------------
                80's - Washya
------------------------------------------------------------------------------
Tuning: Standard (EBGDAE)
Intro/Verses
E|-----------------------4---|
B|-----------------------4---|
G|-----------------------5---|
D|-----------------------6-6-|
A|-4-4-4b-4-4/7p6p4---4b-6-6-|
E|------------------6----4-4-|

Chorus
E|--------------------------------------------------|
B|--------------------------------------------------|
G|--------------------------------------------------|
D|----------------------2-----------5b--------------|
A|---------2-4b---3-4-5-0-------5-3--------------5b-|
E|-0-2/4-5------0-1-2-3---0-3/5--------0-3/5-6-3----|

Before Solo
E|---0-----0--------------------0-----------------0-------|
B|-----3-----3------3-------3-----3-------3---------3-----|
G|-------------0------0-------0-----0-------2---------2---|
D|--------------------------------------4-------4---------|
A|------------------------2-----------2-------2---------2-|
E|-0-----2--------3-----0-------------------------------0-|

Guitar Solo
E|--------------------------------------------------------------|
B|---------------------------------------------4p2---2----------|
G|-9-9b~-9b-7h9p7-99p7p6h77p6p4h66p4p2h44p2bp0-----4---4-2------|
D|---------------------------------------------------------4-2~-|
A|--------------------------------------------------------------|
E|--------------------------------------------------------------|

E|----------------------------------10~-10h13p10h13p10h12p10h12p10~-|
B|-------------------------8-7-8-10---------------------------------|
G|-------------------9-7-9------------------------------------------|
D|-----------7-5-7/9------------------------------------------------|
A|-----7-5-7--------------------------------------------------------|
E|-5-7--------------------------------------------------------------|
PM * * * * * * * * 

E|-/17b-15-15p14h15p14-17~-19b-17-19h21h22p21p19h21h22----------------------|
B|-----------------------------------------------------19h21h22p21p19h21h22-|
G|--------------------------------------------------------------------------|
D|--------------------------------------------------------------------------|
A|--------------------------------------------------------------------------|
E|--------------------------------------------------------------------------|

E|----------------------------------------------------------------|
B|----------------------------------------------------------------|
G|-19h21h22p21p19h21h22-------------------------------------------|
D|----------------------19h21h22p21h19h21h22----------------------|
A|-------------------------------------------19h21h22p21p19h21h22-|
E|----------------------------------------------------------------|

E|-------------------------|
B|-------------------------|
G|-------------------------|
D|-------------------------|
A|-------------------------|
E|-19h21h22p21h19h21h22~\\-|
Добавлено: 09.06.2013
Другие материалы по этой песне:
  • Аккорды и текст

Страница создана 09.06.2013
http://primanota.ru/washya/80s-chords.htm
Привет, Гость.
Предлагаем пройти революционный курс по гитаре.
Подарок от PrimaNota.Ru, забирай!