PrimaNota.ru - самый крупный в мире бесплатный архив песенных текстов, аккордов, табулатур и нот


Warpaint - Krimson - текст песни, таба, бас-таба, видео

Регистрация Запомнить меня
Войти через:  Facebook Google Twitter Vk Yandex Mail.ru

Warpaint - Krimson - текст песни, таба, бас-таба, видео

Печатать
Просмотров: 192
The first tab of this great band on ultimate-guitar :D
It isn't verry difficult to play I think.


Intro:

e--------------------------------------------------------------------|
b-------7-------7-------7-------7------------------------------------|
g----4-------4-------4-------4-----7--6------------------------------|
d-4-------4-------4-------4------------------------------------------|
a--------------------------------------------------------------------|
E--------------------------------------------------------------------|

e--------------------------------------------------------------------|
b-------5-------5-------5-------5------------------------------------|
g----4-------4-------4-------4----6----------------------------------|
d-4-------4-------4-------4---------7--------------------------------|
a--------------------------------------------------------------------|
E--------------------------------------------------------------------|

e---------------------------------------------------------------------|
b-------7-------7-------7--------7------------------------------------|
g----4-------4-------4--------4----7-6-4------------------------------|
d-4-------4-------4--------4------------------------------------------|
a---------------------------------------------------------------------|
E---------------------------------------------------------------------|

e---------------------------------------------------------------------|
b-------5-------5-------5-------5---7-(6)-----------------------------|
g----4-------4-------4-------4----6-----------------------------------|
d-4-------4-------4-------4-------------------------------------------|
a---------------------------------------------------------------------|
E---------------------------------------------------------------------|

play this 2 times
I don't know the chord at the end of the intro

Riff:

e------------------------------------|
b------------------------------------|
g----6-6-4-4-------------------------|
d--4---------5-5-5-------------------|
a------------------------------------|
E------------------------------------|

Part before the solo:

e------------------]------------------------|
b------------------]------------------------|
g--6-6-7-7-6-6-7-7-]-6-6-6-6-6-6-6-6--------|
d--7-7-7-7-7-7-7-7-]-7-7-7-7-7-7-7-7--------|
a------------------]------------------------|
E------------------]------------------------|

solo:

e-9-9-9-9-9-9-9----------------------7---9-7/---------|
b---------------0-0-5-7-5--5-7-00--5---7-----5/7-00---|
g-----------------------------------------------------|
d-----------------------------------------------------|
a-----------------------------------------------------|
E-----------------------------------------------------|

e--------------------------7---9-7/-------------------|
b-0-5-7-5---5-5-7-5-0-0--5---7-----5/7-0-0------------|
g---------7-------------------------------------------|
d-----------------------------------------------------|
a-----------------------------------------------------|
E-----------------------------------------------------|

than:

e--------------]---------------]--------------------------|
b--5/7------0--]-0-0-0-0-0-0-0-]-0-0----------------------|
g------7-7/----]---------------]-----2-2------------------|
d--------------]---------------]--------2-2----0--0-2-----|
a--------------]---------------]-----------2-2--2----0----|
E--------------]---------------]--------------------------|

after that you play the intro again :)
I hope you like it :D

Niek
Добавлено: 21.04.2012
Другие материалы по этой песне:
  • Аккорды и текст

Страница создана 21.04.2012
http://primanota.ru/warpaint/krimson-chords.htm
Привет, Гость.
Предлагаем пройти революционный курс по гитаре.
Подарок от PrimaNota.Ru, забирай!