PrimaNota.ru - самый крупный в мире бесплатный архив песенных текстов, аккордов, табулатур и нот


Warpaint - Biggy - бас-таба, видео

Регистрация Запомнить меня
Войти через:  Facebook Google Twitter Vk Yandex Mail.ru

Warpaint - Biggy - бас-таба, видео

Печатать
Просмотров: 131
-------------------------------------------------------------------------------
                             BIGGY - Warpaint
-------------------------------------------------------------------------------
Tabbed by: Lola  

Tuning: STANDARD (EADG)

I couldn't find this anywhere on the internet so i decided to make one myself. 
Done mostly by ear and watching live videos. 
Feel free to suggest any corrections.
Thanks.

Bass comes in around 1.52 :)


1.52 - 2.25
G|-----------------------| x6
D|-----------------------| 
A|-5------------5--------| (True, the feeling runs across my chest...)
E|-----5\1---1/5-5-------|



2.29 - 3.15 
G|------------------------------------------------| Jenny plays this 8 times, but on
D|---7---10----12---------------------------------| the 6th time, plays the one
A|-5---8----10-----5---8-----10-------------------| below. Then on the 7th and 8th
E|-------------------5----8-----------------------| switches back to this.


G|------------------------------------------------| *(6th time)*
D|---7---10----12----7----10----------------------| 
A|-5---8----10-----5---8-----10-------------------| 
E|------------------------------------------------|



3.19 - 3.23 - Listen carefully for the timing of this bit.
G|-----------------------| (I belieeeeeveeee in love...)
D|----7----------10--10--|
A|-5----------8----------| I'm not completely sure if she plays the extra 10.
E|------5----------------|


3.32 - 4.35
G|-7-5------5-------------------------------------| x11
D|--------7-----7-5-------3--7--------------------|
A|-----5-------------------------5----------------|
E|------------5------1----------------------------|


5.00 - 5.08
G|-------------------------------------------------|
D|-------3-----------------------------------------|
A|-3--5--------------3h5---------------------------|
E|----------1--1--5-----3h5------------------------|


5.08 - to the end (slight variation)
G|-------------------------------------------------| Instead of the 3-3-3, you slide up
D|--------3-3-3------------------------------------| to 8-8-8 on the A string
A|-3--5-------------------3h5----------------------| if that suits you better.
E|----------------1--1--5----3h5-------------------|

And sometimes she plays:
G|-------------------------------------------------|
D|-------3-3-3-------------------------------------|
A|-3--5--------3h5----------3h5--------------------|
E|-----------------1--1--5-----3h5-----------------|


| /  slide up
| \  slide down
| h  hammer-on
========================================================
Добавлено: 14.08.2015
Другие материалы по этой песне:
  • Аккорды и текст

Страница создана 14.08.2015
http://primanota.ru/warpaint/biggy-chords.htm
Привет, Гость.
Предлагаем пройти революционный курс по гитаре.
Подарок от PrimaNota.Ru, забирай!