PrimaNota.ru - самый крупный в мире бесплатный архив песенных текстов, аккордов, табулатур и нот


Voivod - Phobos - текст песни, бас-таба, видео

Регистрация Запомнить меня
Войти через:  Facebook Google Twitter Vk Yandex Mail.ru

Voivod - Phobos - текст песни, бас-таба, видео

Печатать
Просмотров: 61
Новый альбом группы 'Черный Кузнец' по культовому сериалу 'Сверхъестественное'!
Авторы музыки: Eric Forrest, Denis D’Amour, Michel Langevin
Авторы текста: Eric Forrest, Michel Langevin
Artist: Voivod
Song: Phobos
Album: Phobos
Tuning: Drop D
Tabbed by: Mechayoshi 

Rhythm is approximate. Follow along with tab, repeating  all sections until the time indicated. 


[00:47]

G|----------------------------|
D|----------------------------|
A|-----2--4------2---4--------|
D|---5-----3---5-------3------| x22


[1:42]

G|-----------------------------|
D|-----------------------------|
A|-----------------------------|
D|--5-5-5--5-5-5--5-5-5---5-5-5| x9


[2:09]

G|----------------------------|
D|----------------------------|
A|-----2--4------2---4--------|
D|---5-----3---5-------3---5--| X10      


[2:37]

G|-----------------------------|
D|-----------------------------|
A|-----------------------------|
D|--5-5-5--5-5-5--5-5-5---5-5-5| X10
 

[3:11]

G|-----------------------------|
D|-----------------------------|
A|-----------------------------|
D|--5-555-5-555-5-5-5-555------| x3


[3:18]

G|-----------------------------|
D|-----------------------------|
A|---1-1-1-1-1-----------------|
D|-------------2-2-2-2-2-------| x3


[3:28]

G|-----------------------------|
D|-----------------------------|
A|-1-1-1-1-1------4-4-4-4-4----|
D|-----------------------------| X1


[3:31]

G|-----------------------------|
D|-----------------------------|
A|-----------------------------|
D|--3-2-3---2-2-2-2-2-2-2-2----| x4


[3:43]

G|-----------------------------|
D|-----------------------------|
A|---1-1-1-1-1-----------------|
D|-------------2-2-2-2-2-------| x3


[3:54]

G|-----------------------------|
D|-----------------------------|
A|-1-1-1-1-1------4-4-4-4-4----|
D|-----------------------------| x1 


[3:57]

G|-----------------------------|
D|-----------------------------|
A|-----------------------------|
D|--3-2-3---2-2-2-2-2-2-2-2----| x4


[4:10]

G|-----------------------------|
D|-----------------------------|
A|-----------------------------|
D|--0-0-0--0-0-0--0-0-0---0-0-0| X5


[5:23] - pause, no bass


[5:31] 

until end

G|----------------------------|
D|----------------------------|
A|-----2--4------2---4--------|
D|---5-----3---5-------3---5--|        
Добавлено: 25.01.2018
Вам также может быть интересно:
Другие материалы по этой песне:
  • Аккорды и текст

Страница создана 06.05.2012
http://primanota.ru/voivod/phobos-chords.htm
Привет, Гость.
Предлагаем пройти революционный курс по гитаре.
Подарок от PrimaNota.Ru, забирай!