PrimaNota.ru - самый крупный в мире бесплатный архив песенных текстов, аккордов, табулатур и нот


Voivod - Golem - текст песни, бас-таба, видео

Регистрация Запомнить меня
Войти через:  Facebook Google Twitter Vk Yandex Mail.ru

Voivod - Golem - текст песни, бас-таба, видео

Печатать
Просмотров: 53
Новый альбом группы 'Черный Кузнец' по культовому сериалу 'Сверхъестественное'!
Band: Voivod
Album: Angel Rat
Song: Golem
Tab: Bass
Tabbed by: muberal

Tempo: 125bpm
4/4

[Intro]

G|----------------------------|----------------------------|
D|----------------------------|----------------------------|
A|-----------8-----8--10-8----|----------------------------|
E|--10----10------------------|--10-10-10-10---------------| x2

[Verse 1]

G|----------------------------|----------------------------|
D|----------------------------|----------------------------|
A|-----------8-----8--10-8----|----------------------------|
E|--10----10------------------|--10-10-10-10---------------| x4

G|----------------------------|----------------------------|
D|----------------------------|-----------------12---------|
A|-----------8-----8--10-8----|----------------------------|
E|--10----10------------------|--10-10-10-10---------------|

G|----------------------------|----------------------------|
D|----------------------------|----------------------------|
A|-----------8-----8--10-8----|----------------------------|
E|--10----10------------------|--10-10-10-10---------------|

G|----------------------------------------------------|
D|----------------------------------------------------|
A|----------------------------------------------------|
E|--9-----9--9--9--9--9--9----------------------------| x3

G|----------------------------------------------------|
D|----------------------------------------------------|
A|----------------------------------------------------|
E|--9-----9--9--9--9--9--9--9--9--------7--7----------|

G|----------------------------------------------------|
D|----------------------------------------------------|
A|----------------------------------------------------|
E|--9-----9--9--9--9--9--9----------------------------| x3

G|----------------------------------------------------|
D|----------------------------------------------------|
A|----------------------------------------------------|
E|--9-----9--9--9--9--9--9--9--9--9--9--7--7----------|

G|----------------------------------------------------|
D|----------------------------------------------------|
A|----------------------------------------------------|
E|--0--0--0--0--0--0--0--0--0--0--0--0--7--7--10-10---| x4

G|----------------------------------------------------|
D|----------------------------------------------------|
A|----------------------------------------------------|
E|--9-----9--9--9--9--9--9----------------------------| x3

G|----------------------------------------------------|
D|----------------------------------------------------|
A|----------------------------------------------------|
E|--9-----9--9--9--9--9--9--9--9--------7--7----------|

[Chorus 1]

G|-----------9-----------------------6----------------|-----------------------------------6---------------|
D|----------------------------------------------------|---------------------------------------------------|
A|--0-----------------0-------------------------------|---------------------------------------------------|
E|--------------------------2-----------------2-------|--2--------2--------2-----2-----------------2------| x4

[Verse 2]

G|----------------------------|----------------------------|
D|----------------------------|----------------------------|
A|-----------8-----8--10-8----|----------------------------|
E|--10----10------------------|--10-10-10-10---------------| x4

G|----------------------------|----------------------------|
D|----------------------------|-----------------12---------|
A|-----------8-----8--10-8----|----------------------------|
E|--10----10------------------|--10-10-10-10---------------|

G|----------------------------|----------------------------|
D|----------------------------|----------------------------|
A|-----------8-----8--10-8----|----------------------------|
E|--10----10------------------|--10-10-10-10---------------|

G|----------------------------------------------------|
D|----------------------------------------------------|
A|----------------------------------------------------|
E|--9-----9--9--9--9--9--9----------------------------| x3

G|----------------------------------------------------|
D|----------------------------------------------------|
A|----------------------------------------------------|
E|--9-----9--9--9--9--9--9--9--9--------7--7----------|

G|----------------------------------------------------|
D|----------------------------------------------------|
A|----------------------------------------------------|
E|--9-----9--9--9--9--9--9----------------------------| x3

G|----------------------------------------------------|
D|----------------------------------------------------|
A|----------------------------------------------------|
E|--9-----9--9--9--9--9--9--9--9--9--9--7--7----------|

G|----------------------------------------------------|
D|----------------------------------------------------|
A|----------------------------------------------------|
E|--0--0--0--0--0--0--0--0--0--0--0--0--7--7--10-10---| x4

G|----------------------------------------------------|
D|----------------------------------------------------|
A|----------------------------------------------------|
E|--9-----9--9--9--9--9--9----------------------------| x3

G|----------------------------------------------------|
D|----------------------------------------------------|
A|----------------------------------------------------|
E|--9-----9--9--9--9--9--9--9--9--------7--7----------|

[Chorus 2]

G|-----------9-----------------------6----------------|-----------------------------------6---------------|
D|----------------------------------------------------|---------------------------------------------------|
A|--0-----------------0-------------------------------|---------------------------------------------------|
E|--------------------------2-----------------2-------|--2--------2--------2-----2-----------------2------| x4

[Bridge]

Tempo: 134bpm
6/8

G|----------------------|
D|--2--------4----------|
A|-----0--2-----0--2----|
E|----------------------| x16

G|----------------------|----------------------|----------------------|----------------------|
D|----------------------|----------------------|----------------------|----------------------|
A|----------------------|----------------------|----------------------|----------------------|
E|--0--0--0--0--0--0----|--0--14-14-14-14-14---|--12-0--0--0--0--0----|--0--15-15-15-15-15---|

G|----------------------|----------------------|----------------------|----------------------|
D|----------------------|----------------------|----------------------|----------------------|
A|----------------------|----------------------|----------------------|----------------------|
E|--12-0--0--0--0--0----|--0--14-14-14-14-14---|--12-0--0--0--0--0----|--0--15-15-15-15-15---| x2

G|----------------------|----------------------|----------------------|----------------------|
D|----------------------|----------------------|----------------------|----------------------|
A|----------------------|----------------------|----------------------|--------------12-14---|
E|--12-0--0--12-0--0----|--12-14-14-14-14-14---|--12-0--0--12-0--0----|--12-15-15-15---------|

G|----------------------|----------------------|----------------------|----------------------|
D|----------------------|----------------------|----------------------|----------------------|
A|----------------------|----------------------|----------------------|----------------------|
E|--12-0--0--12-0--0----|--12-14-14-14-14-14---|--12-0--0--12-0--0----|--12-15-15-15-15-15---|

G|----------------------|----------------------|----------------------|----------------------|
D|----------------------|----------------------|----------------------|----------------------|
A|----------------------|----------------------|----------------------|----------------------|
E|--12-0--0--0--0--0----|--0--14-14-14-14-14---|--12-0--0--0--0--0----|--0--15-15-15-15-15---|

[Verse 3]

Tempo: 125bpm
4/4

G|----------------------------|----------------------------|
D|----------------------------|----------------------------|
A|-----------8-----8--10-8----|----------------------------|
E|--10----10------------------|--10-10-10-10---------------| x4

G|----------------------------|----------------------------|
D|----------------------------|-----------------12---------|
A|-----------8-----8--10-8----|----------------------------|
E|--10----10------------------|--10-10-10-10---------------|

G|----------------------------|----------------------------|
D|----------------------------|----------------------------|
A|-----------8-----8--10-8----|----------------------------|
E|--10----10------------------|--10-10-10-10---------------|

[Outro]

G|----------------------------|----------------------------|
D|----------------------------|----------------------------|
A|-----------8-----8--10-8----|----------------------------|
E|--10----10------------------|--10-10-10-10---------------| x14

Fade out.

Fin.
Добавлено: 25.01.2018
Другие материалы по этой песне:
  • Аккорды и текст

Страница создана 17.09.2013
http://primanota.ru/voivod/golem-chords.htm
Привет, Гость.
Предлагаем пройти революционный курс по гитаре.
Подарок от PrimaNota.Ru, забирай!