PrimaNota.ru - самый крупный в мире бесплатный архив песенных текстов, аккордов, табулатур и нот


Violent Soho - Here Be Dragons - таба, бас-таба, видео

Регистрация Запомнить меня
Войти через:  Facebook Google Twitter Vk Yandex Mail.ru

Violent Soho - Here Be Dragons - таба, бас-таба, видео

Печатать
Просмотров: 237
Уроки эстрадного вокала в Санкт-Петербурге
[Intro]

Start with Bass guitar only then goes into this:

e|---------------------------------------------------------------------------|
B|---------------------------------------------------------------------------|
G|---------------------------------------------------------------------------| x4
D|-2-2-0-2-3-2-0-2--5-8-8-0--------------------------------------------------|
A|-2-2-0-2-3-2-0-2--5-8-8-0--------------------------------------------------|
D|-2-2-0-2-3-2-0-2--5-8-8-0--------------------------------------------------|

Starts                        Ends 
on this:                      on this:              
e|------||---------------|    |---------------|
B|------||---------------|    |---------------|
G|-14b~~||-12/14\12/14b~~| x2 |-12/14\12\9~~--| 
D|------||---------------|    |---------------|
A|------||---------------|    |---------------|
D|------||---------------|    |---------------|


[Verse]

PM..................... 
e|---------------------------------------------------------------------------|
B|---------------------------------------------------------------------------|
G|---------------------------------------------------------------------------| x4
D|-2-2-0-2-2-2-0-2-2-2-0-5-8-8-0---------------------------------------------|
A|-2-2-0-2-2-2-0-2-2-2-0-5-8-8-0---------------------------------------------|
D|-2-2-0-2-2-2-0-2-2-2-0-5-8-8-0---------------------------------------------|


[Chorus]

e|---------------------------------------------------------------------------|
B|---------------------------------------------------------------------------|
G|---------------4-4-3--3-3--------------------------------------------------| x4
D|-2--2-2-5--5-5-4-4-3--3-3--------------------------------------------------|
A|-2--2-2-5--5-5-2-2-1--1-1--------------------------------------------------|
D|-2--2-2-5--5-5-------------------------------------------------------------|


[Verse]

PM..................... 
e|---------------------------------------------------------------------------|
B|---------------------------------------------------------------------------|
G|---------------------------------------------------------------------------| x4
D|-2-2-0-2-2-2-0-2-2-2-0-5-8-8-0---------------------------------------------|
A|-2-2-0-2-2-2-0-2-2-2-0-5-8-8-0---------------------------------------------|
D|-2-2-0-2-2-2-0-2-2-2-0-5-8-8-0---------------------------------------------|


[Chorus]

e|---------------------------------------------------------------------------|
B|---------------------------------------------------------------------------|
G|---------------4-4-3--3-3--------------------------------------------------| x4
D|-2--2-2-5--5-5-4-4-3--3-3--------------------------------------------------|
A|-2--2-2-5--5-5-2-2-1--1-1--------------------------------------------------|
D|-2--2-2-5--5-5-------------------------------------------------------------|


[Breakdown]

its all just massive slides going back to the same point till the last bit 
e|---------------------------------------------------------------------------|
B|---------------------------------------------------------------------------|
G|-14\/14\/14\14/14\/14b~~~~~~~~~~12/14\12/14b~~~~~~~~12/14\12\14b~~~~~~~~~--|
D|---------------------------------------------------------------------------|
A|---------------------------------------------------------------------------|
D|---------------------------------------------------------------------------|

e|---------------------------------------------------------------------------|
B|---------------------------------------------------------------------------|
G|-12/14\12\9~~~~~~~~~~~~~~~~~~~~~~~~~~~~------------------------------------|
D|---------------------------------------------------------------------------|
A|---------------------------------------------------------------------------|
D|---------------------------------------------------------------------------|

e|---------------------------------------------------------------------------|
B|---------------------------------------------------------------------------|
G|---------------------------------------------------------------------------| x4
D|-2-2-0-2-3-2-0-2--5-8-8-0--------------------------------------------------|
A|-2-2-0-2-3-2-0-2--5-8-8-0--------------------------------------------------|
D|-2-2-0-2-3-2-0-2--5-8-8-0--------------------------------------------------|

Bass Break after this

[Outro]
                                                                              
e|---------------------------------------------------------------------------|
B|---------------------------------------------------------------------------|
G|---------------4-4-3--3-3--------------------------------------------------| x12
D|-2--2-2-5--5-5-4-4-3--3-3--------------------------------------------------|
A|-2--2-2-5--5-5-2-2-1--1-1--------------------------------------------------|
D|-2--2-2-5--5-5-------------------------------------------------------------|



************************************

| b   Bend
| /   Slide up
| \   Slide down
| ~   Vibrato

************************************
Добавлено: 17.10.2017
Другие материалы по этой песне:
  • Аккорды и текст

Страница создана 19.03.2012
http://primanota.ru/violent-soho/here-be-dragons-chords.htm
Привет, Гость.
Предлагаем пройти революционный курс по гитаре.
Подарок от PrimaNota.Ru, забирай!