PrimaNota.ru - самый крупный в мире бесплатный архив песенных текстов, аккордов, табулатур и нот


Vinnie Moore - Defying Gravity - таба, видео

Регистрация Запомнить меня
Войти через:  Facebook Google Twitter Vk Yandex Mail.ru

Vinnie Moore - Defying Gravity - таба, видео

Печатать
Просмотров: 155
Gtr I (E A D G B E) - 'Untitled'

 4/4
  Gtr I
   T  T  T  T  T  T  T  T  T  T  T  T  T  T  T  T  T  T  T Q  T  T  T  T  T  T  T  T  T  T  T  T  T  T
|----------------15-18-15----------------------------15-21------------------15-18-15-------------------|
|-------------17----------17----------------------17---------------------17----------17----------------|
|-------15-18----------------18-15----------15-18------------------15-18----------------18-15----------|
|----17----------------------------17----17---------------------17----------------------------17----17-|
|-19----------------------------------19---------------------19----------------------------------19----|
|------------------------------------------------------------------------------------------------------|


   T  T  T  T  T Q  T  T  T  T  T  T  T  T  T  T  T  T  T  T  T  T  T  T  T  S E  T  T  T  T  T  T  T  T
|----------15-18---21-18----------------------------18-21-18----------18-22-18---21-18-------------------|
|-------17---------------20----------------------20----------20----20------------------20----------------|
|-15-18---------------------21-18----------18-21----------------21------------------------21-18----------|
|---------------------------------20----20------------------------------------------------------20----20-|
|------------------------------------21------------------------------------------------------------21----|
|--------------------------------------------------------------------------------------------------------|


   T  T  T  T  T  T  T  T  T  T E  T  T  T  T  T  T  T  T  T  T  T  T  T  T  T  T  T  T  T  T  T  T  T  T
|----------18-21-18----------18---21-18-15----------15-21-18-15----------15-21-18-15----------15-21-18-15-|
|-------20----------20----20---------------17----17-------------17----17-------------17----17-------------|
|-18-21----------------21---------------------18-------------------18-------------------18----------------|
|---------------------------------------------------------------------------------------------------------|
|---------------------------------------------------------------------------------------------------------|
|---------------------------------------------------------------------------------------------------------|


   T  T  T  T  T  T  T  T  T  T  T  T  T  T  T  T  T  T  T  T  T  T  T  T  T  T  T  T  T  T  T  T  T  T  T
|----------15-20-17-14----------14-20-17-14----------14-20-17-14----------14-20-17-14----------14-19-16-13-|
|-17----17-------------16----16-------------16----16-------------16----16-------------16----16-------------|
|----18-------------------17-------------------17-------------------17-------------------17----------------|
|----------------------------------------------------------------------------------------------------------|
|----------------------------------------------------------------------------------------------------------|
|----------------------------------------------------------------------------------------------------------|


   T  T  T  T  T  T  T  T  T  T  T  T  T  T  T  T  T  T  T  T  T  T  T  T  T  T  T  T  T  T  T  T  T  T  T
|----------13-19-16-13----------13-19-16-13----------13-19-16-13----------13-18-15-12----------12-18-15-12-|
|-15----15-------------15----15-------------15----15-------------15----15-------------14----14-------------|
|----16-------------------16-------------------16-------------------16-------------------15----------------|
|----------------------------------------------------------------------------------------------------------|
|----------------------------------------------------------------------------------------------------------|
|----------------------------------------------------------------------------------------------------------|


   T  T  T  T  T  T  T  T  T  T  T  T  T  T  T  T  T  T  E   E   E   E   E E   E   E   E   E   E
|----------12-18-15-12----------12-18-15-12----------12-21-/22-\21-/22-\21---\21-/22-\21-/22-\21----|
|-14----14-------------14----14-------------14----14------------------------------------------------|
|----15-------------------15-------------------15---------------------------------------------------|
|---------------------------------------------------------------------------------------------------|
|---------------------------------------------------------------------------------------------------|
|---------------------------------------------------------------------------------------------------|




--------------------------------------------------------------------------------


Duration Legend
---------------
W - whole; H - half; Q - quarter; E - 8th; S - 16th; T - 32nd; X - 64th; a - acciaccatura
+ - note tied to previous; . - note dotted; .. - note double dotted
Uncapitalized letters represent notes that are staccato (1/2 duration)
Irregular groupings are notated above the duration line
Duration letters will always appear directly above the note/fret number it represents the
duration for.  Duration letters with no fret number below them represent rests.  Multi-
bar rests are notated in the form Wxn, where n is the number of bars to rest for.  Low
melody durations appear below the staff

Tablature Legend
----------------
 h   - hammer-on
 p   - pull-off
 b   - bend
 pb  - pre-bend
 r   - bend release (if no number after the r, then release immediately)
 /\  - slide into or out of (from/to "nowhere")
 s   - legato slide
 S   - shift slide
 - natural harmonic
[n]  - artificial harmonic
n(n) - tapped harmonic
 ~   - vibrato
 tr  - trill
 T   - tap
 TP  - trem. picking
 PM  - palm muting
\n/  - tremolo bar dip; n = amount to dip
 \n  - tremolo bar down
 n/  - tremolo bar up
/n\  - tremolo bar inverted dip
 =   - hold bend; also acts as connecting device for hammers/pulls
 <> - volume swell (louder/softer)
 x   - on rhythm slash represents muted slash
 o   - on rhythm slash represents single note slash

Misc Legend
-----------
 |  - bar
||  - double bar
||o - repeat start
o|| - repeat end
*|  - double bar (ending)
 :  - bar (freetime)
 $  - Segno
 &  - Coda
Tempo markers -  = BPM(8/16=s8/s16), where s8 = swing 8ths, s16 = swing 16ths


--------------------------------------------------------------------------------
Добавлено: 23.02.2012
Другие материалы по этой песне:

Страница создана 23.02.2012
http://primanota.ru/vinnie-moore/defying-gravity-chords.htm
Привет, Гость.
Предлагаем пройти революционный курс по гитаре.
Подарок от PrimaNota.Ru, забирай!