PrimaNota.ru - самый крупный в мире бесплатный архив песенных текстов, аккордов, табулатур и нот


Vinnie Moore - Race With Destiny - таба, видео

Регистрация Запомнить меня
Войти через:  Facebook Google Twitter Vk Yandex Mail.ru

Vinnie Moore - Race With Destiny - таба, видео

Печатать
Просмотров: 140
Авторы музыки: Vinnie Moore

                     Vinnie Moore-Race With Destiny

Tuning:E,A,D,G,B,E


This is a somewhat complicated song by master Vinnie Moore
i only written the intro for now will post the rest when
i have the chance please leave comments and feedback!:D <3


E----------------------------------------------------|
B----------------------------------------------------|
G----------------------------------------------------|
D---------------4--5-----4---------------------------|
A-------4--5--7-------7-----5--7--4--5-----4---------|
E--6--7---------------------------------7-----6------|



E-----------------------------------------------------|
B-----------------------------------------------------|
G--------------------------4--------------------------|
D--------------4-----5--------4--5-----4--------------|
A----4--5--7------7-----7-----------7-----7--5--4-----|
E--7--------------------------------------------------|



E-----------------------------------------------------|
B---------------------------------------3---2---------|
G-----------------------------4-----3-----3-----------|
D----------------4--5-----4------5--------------------|
A-------4--5--7--------7------------------------------|
E--6--7-----------------------------------------------|



E--3---2---7----2----9--7--6---------------------------|
B----3--------7----------8--7--5-----------------------|
G----------------------------7--6--4-------------------|
D----------------------------------8--5--4-------------|
A---------------------------------------7--5--4--------|
E------------------------------------------------------|




E------------------------------------------------------|
B------------------------------------------------------|
G------------------------------------------------------|
D---------------4--5-----4-----------------------------|
A-------4--5--7-------7-----5--7--4--5-----4-----------|
E--6--7---------------------------------7-----6--------|




E------------------------------------------------------|
B------------------------------------------------------|
G--------------------------4---------------------------|
D--------------4-----5--------4--5-----4---------------|
A----4--5--7------7-----7-----------7-----7--5--4------|
E--7---------------------------------------------------|




E------------------------------------------------------|
B---------------------------------------3---2----------|
G-----------------------------4-----3-----3------------|
D----------------4--5-----4------5---------------------|
A-------4--5--7--------7-------------------------------|
E--6--7------------------------------------------------|



E--3----2----7----6----9--7--6--7---10--9--7--9--12--10--9--10--|
B----3---------7------------------------------------------------|
G---------------------------------------------------------------|
D---------------------------------------------------------------|
A---------------------------------------------------------------|
E---------------------------------------------------------------|



E--14--12--10--14--12--10-----15--14--12--15--14--12---------------|
B------------------------------------------------------------------|
G------------------------------------------------------------------|
D------------------------------------------------------------------|
A------------------------------------------------------------------|
E------------------------------------------------------------------|



E--16--15--14---16--15--14---15--14--12--15--14--12--14-----------|
B-----------------------------------------------------------------|
G-----------------------------------------------------------------|
D-----------------------------------------------------------------|
A-----------------------------------------------------------------|
E-----------------------------------------------------------------|
Добавлено: 17.08.2013
Другие материалы по этой песне:

Страница создана 22.03.2012
http://primanota.ru/vinnie-moore/race-with-destiny-chords.htm
Привет, Гость.
Предлагаем пройти революционный курс по гитаре.
Подарок от PrimaNota.Ru, забирай!