PrimaNota.ru - самый крупный в мире бесплатный архив песенных текстов, аккордов, табулатур и нот


Uriah Heep - Whad Ya Say - текст песни, бас-таба, видео

Регистрация Запомнить меня
Войти через:  Facebook Google Twitter Vk Yandex Mail.ru

Uriah Heep - Whad Ya Say - текст песни, бас-таба, видео

Печатать
Просмотров: 145
                             WHAD' YA SAY (Bassline)
                            As recorded by Uriah Heep
                       (From the 1978 Album FALLEN ANGEL)

Words and Music by Ken Hensley
Transcribed by MRFairbrother

Gtr I (E A D G) - 'Bass'

   Intro
    Moderately Fast Rock Q=128
   4/4
    Gtr I
    e e S E S S E S Q    e e S E S S E S Q
||---------------------|--------------------|
||o--------------------|--------------------|
||o-3-3-3-3---3-3------|-3-3-3-3---3-3------|
||---------------------|--------------------|


  e e S E S S E S Q    e e S E S S E S Q
|--------------------|---------------------||
|--------------------|--------------------o||
|-3-3-3-3---3-3------|-3-3-3-3---3-3------o||
|--------------------|---------------------||


   Chorus
    $
                    |-3-|                   |-3-|
    e e S E S S E S E E E   e e S E S S E S E E E
||------------------------|-----------------------|
||o-----------------1-0---|-----------------1-0---|
||o-3-3-3-3---3-3-------1-|-3-3-3-3---3-3-------1-|
||------------------------|-----------------------|


                  |-3-|                   |-3-|
  e e S E S S E S E E E   e e S E S S E S E E E
|-----------------------|-------------------------||
|-----------------1-0---|-----------------1-0----o||
|-3-3-3-3---3-3-------1-|-3-3-3-3---3-3-------1--o||
|-----------------------|-------------------------||


   Verse
                    |-3-|                   |-3-|
    e e S E S S E S E E E   e e S E S S E S E E E
||------------------------|-----------------------|
||o-----------------1-0---|-----------------1-0---|
||o-3-3-3-3---3-3-------1-|-3-3-3-3---3-3-------1-|
||------------------------|-----------------------|


                                       To Coda
                  |-3-|                   |-3-|
  e e S E S S E S E E E   e e S E S S E S E E E   4x
|-----------------------|-------------------------||
|-----------------1-0---|-----------------1-0----o||
|-3-3-3-3---3-3-------1-|-3-3-3-3---3-3-------1--o||
|-----------------------|-------------------------||


 Pre-Chorus
   Q  Q  Q  Q    Q  Q  E E E E   Q  Q  Q  Q    Q  Q  E +E  E E
|-----8-----8--|----6----5---6-|----8-----8--|----6----------8--|
|--------------|---------------|-------------|------------------|
|-/6-----6-----|-4-----3---4---|-6-----6-----|-4-----3-(3)s6----|
|--------------|---------------|-------------|------------------|


                                        D.S. al Coda
  Q  Q  Q  Q    Q  Q  E E E E   H    Q  +E  S S   W
|----8-----8--|---------------|-------------3-4-|-5-----||
|-------------|----8----8---7-|------6--(6)-----|-------||
|-6-----6-----|---------------|-----------------|-------||
|-------------|-6-----6---5---|-4---------------|-------||


 Pre-Chorus (Variation 1)
  &
   Q  Q  Q  Q    Q  Q  E +E  E E   Q  Q  Q  Q    Q  Q  E E E E
|-----8-----8--|----8----------8-|----8-----8--|----8----5---6--|
|--------------|-----------------|-------------|----------------|
|-/6-----6-----|-6-----3-(3)s6---|-6-----6-----|-6-----3---4----|
|--------------|-----------------|-------------|----------------|


  Q  Q  Q  Q    Q  Q  E E E E   H    Q  +E  S S   W
|----8-----8--|---------------|-------------3-4-|-5----||
|-------------|----8----8---7-|------6--(6)-----|------||
|-6-----6-----|---------------|-----------------|------||
|-------------|-6-----6---5---|-4---------------|------||


   Chorus
                    |-3-|                   |-3-|
    e e S E S S E S E E E   e e S E S S E S E E E
||------------------------|-----------------------|
||o-----------------1-0---|-----------------1-0---|
||o-3-3-3-3---3-3-------1-|-3-3-3-3---3-3-------1-|
||------------------------|-----------------------|


                  |-3-|                   |-3-|
  e e S E S S E S E E E   e e S E S S E S E E E
|-----------------------|-------------------------||
|-----------------1-0---|-----------------1-0----o||
|-3-3-3-3---3-3-------1-|-3-3-3-3---3-3-------1--o||
|-----------------------|-------------------------||


 Pre-Chorus (Variation 2)
   Q  Q  Q  Q    Q  Q  E E E E   Q  Q  Q  Q    Q  Q  E E E E
|-----8-----8--|----8----5---6-|----8-----8--|----8----5---6--|
|--------------|---------------|-------------|----------------|
|-/6-----6-----|-6-----3---4---|-6-----6-----|-6-----3---4----|
|--------------|---------------|-------------|----------------|


  Q  Q  Q  Q    Q  Q  E E E E   H    Q  +E  S S   W
|----8-----8--|---------------|-------------3-4-|-5----||
|-------------|----8----8---7-|------6--(6)-----|------||
|-6-----6-----|---------------|-----------------|------||
|-------------|-6-----6---5---|-4---------------|------||


 Interlude
                  |-3-|                   |-3-|
  e e S E S S E S E E E   e e S E S S E S E E E
|-----------------------|-----------------------|
|-----------------1-0---|-----------------1-0---|
|-3-3-3-3---3-3-------1-|-3-3-3-3---3-3-------1-|
|-----------------------|-----------------------|


                  |-3-|                   |-3-|
  e e S E S S E S E E E   e e S E S S E S E E E
|-----------------------|-------------------------|
|-----------------1-0---|-----------------1-0-----|
|-3-3-3-3---3-3-------1-|-3-3-3-3---3-3-------1---|
|-----------------------|-------------------------|


                  |-3-|                   |-3-|
  e e S E S S E S E E E   e e S E S S E S E E E
|-----------------------|-----------------------|
|-----------------1-0---|-----------------1-0---|
|-3-3-3-3---3-3-------1-|-3-3-3-3---3-3-------1-|
|-----------------------|-----------------------|


                  |-3-|
  e e S E S S E S E E E    E E E E E E Q
|-----------------------||-2-2-2-2-2--------||
|-----------------1-0---||------------------||
|-3-3-3-3---3-3-------1-||------------------||
|-----------------------||------------------||


   Out-Chorus
                    |-3-|                   |-3-|
    e e S E S S E S E E E   e e S E S S E S E E E
||------------------------|-----------------------|
||o-0-0-0-0---0-0---3-2---|-0-0-0-0---0-0---3-2---|
||o---------------------3-|---------------------3-|
||------------------------|-----------------------|


                  |-3-|                   |-3-|
  e e S E S S E S E E E   e e S E S S E S E E E
|-----------------------|---------------------------||
|-0-0-0-0---0-0---3-2---|-0-0-0-0---0-0---3-2------o||
|---------------------3-|---------------------3----o||
|-----------------------|---------------------------||
Добавлено: 21.07.2013
Другие материалы по этой песне:
  • Аккорды и текст

Страница создана 21.07.2013
http://primanota.ru/uriah-heep/whad-ya-say-chords.htm
Привет, Гость.
Предлагаем пройти революционный курс по гитаре.
Подарок от PrimaNota.Ru, забирай!