PrimaNota.ru - самый крупный в мире бесплатный архив песенных текстов, аккордов, табулатур и нот


Uriah Heep - Come Back To Me - аккорды и текст, видео

Регистрация Запомнить меня
Войти через:  Facebook Google Twitter Vk Yandex Mail.ru

Uriah Heep - Come Back To Me - аккорды и текст, видео

Печатать
Просмотров: 1114
Come Back To Me
Uriah Heep


     Come Back To Me (Kerslake/Hensley)

   Slide Guitar 1
  Eb       Cm         Fm      Bb           Eb
e-----------------------------------------------
B-8--4-6/8-8--11/9--8-9--8-9-11-11---13-15-16---
G-----------------------------------------------
D-----------------------------------------------
A-----------------------------------------------
E-----------------------------------------------

   Eb       Cm        Fm       Bb       Eb                  
e-----------------------------------------------
B--16-15-13-16--15-16-18----1815-16-18-16------
G-----------------------------------------------
D-----------------------------------------------
A-----------------------------------------------
E-----------------------------------------------

Verse and chorus
Eb               Cm                 Fm              Bb
e--------------------------3----------------1-------------------------
B--------8-8-------------4---4----------------1-------------6--------
G------8-----8---------5-------5----------1-----1---------7---7------
D----8---------8-----5-----------5------3--------3------8-------8----
A--6-------------6-3------------------3---------------8-----------8--
E-----------------------------------1----------------6----------------

Bridge
                                             x2
e-----------------------------------------------|-----------------
B-----------------------------------------------|-----------------
G-12-12-12-12---10-10-10-10---8-8-8-8-8-8-8-10--|----------------
D-12-12-12-12---10-10-10-10---8-8-8-8-8-8-8-10--|----------------
A-10-10-10-10---8--8--8--8----6-6-6-6-6-6-6-8---|----------------
E-----------------------------------------------|-----------------

Slide Guitar 2
e---------------------------------------------------------------
B---------------------------------------------------------------
G--12--8-10/12-12--8-10/12-13--137-8-10-12---------------------
D---------------------------------------------------------------
A---------------------------------------------------------------
E---------------------------------------------------------------

e---------------------------------------------------------------
B---------------------------------------------------------------
G--12--8-10/12-12--/15-13-12-13--137-8-10-12-------------------
D---------------------------------------------------------------
A---------------------------------------------------------------
E---------------------------------------------------------------

Slide 1

Alone again, I feel so alone again
With this emptiness I just can't hide

Verse and chorus

Picture me with a broken heart
See the tears run down my face


Eb                    Cm                
Everything I had has gone

Everything is gone
 G#                        Eb - Bb
Loneliness still lingering on
Eb                        Cm
Everything I thought was mine
      G#
Come back to me
                Eb        Bb
Can't we try it one more time
      Eb           - F
Come back to me

Bridge

Gm            F                    Eb - F
I know I'll find another love in time
 Gm                    F
But you'll always be there
                   Eb - F 
In the back of my mind
  Bb
The power of love
                Dm
Can bring such pain
G#                Bb 
I still love you, I just love you

Verse and chorus

Alone again, I'm so alone again
With nothing but you on my mind
Can't you see
What you've done to my life
What can I do to
Win you back again

Everything I had has gone
Everything is gone
Loneliness still lingering on
Everything I thought was mine
Come back to me
Can't we try it one more time
Come back to me

Slide Guitar 2

Добавлено: 13.01.2014
Другие материалы по этой песне:
  • Аккорды и текст

Страница создана 18.05.2012
http://primanota.ru/uriah-heep/come-back-to-me-chords.htm
Привет, Гость.
Предлагаем пройти революционный курс по гитаре.
Подарок от PrimaNota.Ru, забирай!