PrimaNota.ru - самый крупный в мире бесплатный архив песенных текстов, аккордов, табулатур и нот


Underoath - Cries Of The Past - текст песни, таба, бас-таба, видео

Регистрация Запомнить меня
Войти через:  Facebook Google Twitter Vk Yandex Mail.ru

Underoath - Cries Of The Past - текст песни, таба, бас-таба, видео

Печатать
Просмотров: 156
i didnt tab any of this. i just took the best of the songs. 
(Giving Up Hurts the Most is number 2 on the cd artwork but Walking Away is
number 2 on the audio cd.)

1.The Last (aboveme)
2.Giving Up Hurts the Most (skunkx)
3.Walking Away (!normajean!)
4.And I Dreamt Of You (aj66602)
5.Cries of the Past (darkstar11589)


----------------------------------------------------------------------------
                          The Last
----------------------------------------------------------------------------
Drop D (DADGBE)

||Guitar 1||
intro (all hammer-ons and pull-offs)
E|-----------------------------------------------------------------------||
B|-----------------------------------------------------------------------||
G|-----------------------------------------------------------------------||
D|-----------------------------------------------------------------------||
A|h5p0h5p0h5p0h5p0-h8p0h8p0-h7p0h7p0-h5p0h5p0h5p0h5p0-h8p0h8p0-h7p0h7p0--||
D|-----------------------------------------------------------------------||

E|---------------------------------------------------------------------||
B|---------------------------------------------------------------------||
G|---------------------------------------------------------------------||
D|---------------------------------------------------------------------||
A|h5p1h5p1h5p1h5p1-h8p1h8p1-h7p1h7p1-h5p1h5p1h5p1-h8p1-h7p1-h10p1-h7p1-||
D|---------------------------------------------------------------------||

E|-----------------------------------------------------------------------||
B|-----------------------------------------------------------------------||
G|-----------------------------------------------------------------------||
D|-----------------------------------------------------------------------||
A|h5p0h5p0h5p0h5p0-h8p0h8p0-h7p0h7p0-h5p0h5p0h5p0h5p0-h8p0h8p0-h7p0h7p0--||
D|-----------------------------------------------------------------------||

E|-----------------------------------------------------------------------------||
B|-----------------------------------------------------------------------------||
G|-----------------------------------------------------------------------------||
D|-----------------------------------------------------------------------------||
A|h5p1h5p1h5p1h5p1-h8p1h8p1-h7p1h7p1-h5p1-h7p1-h8p1-h5p1-h12p1-h8p1-h10p1-h7p1-||
D|-----------------------------------------------------------------------------||
(repeat once)
(0:43)
E|-------------------------------------------------------------------||
B|-------------------------------------------------------------------||
G|-------------------------------------------------------------------||
D|0033003300330033--33--33--22--22--0033003300330033--33--33--22--22-||
A|----------------11--11--33--33--------------------11--11--33--33---||
D|-------------------------------------------------------------------||

E|-----------------------------------10-10-88----------10p8------------||
B|-----10-10-----10-10--10-10--10-10---------10-10---------10p8--------||
G|10-10-----10-10-----99-----99-------------------10-10--------10p9p7\-||
D|---------------------------------------------------------------------||
A|---------------------------------------------------------------------||
D|---------------------------------------------------------------------||

E|------------------------------------------------88------------8h10\--||
B|-----10-10-----10-10--10-10--10-10------88-10-10--------8h10p8-------||
G|10-10-----10-10-----99-----99------10-10----------9h10p9-------------||
D|---------------------------------------------------------------------||
A|---------------------------------------------------------------------||
D|---------------------------------------------------------------------||
(0:58)
E|----------------------------------------------------------------||
B|----------------------------------------------------------------||
G|----------------------------------------------------------------||
D|-----------------------------------------5558p5--777-10p7-------||
A|5558p5-5558p5-5558p5-5558p5-4447p4-4447p4-----------------------||
D|----------------------------------------------------------------||
  ...    ...    ...    ...    ...    ...   ...     ...
E|----------------------------------------------------------------||
B|----------------------------------------------------------------||
G|----------------------------------------------------------------||
D|-----------------------------------------5558p5--777-10p7-------||
A|5558p5-5558p5-5558p5-5558p5-4447p4-4447p4-----------------------||
D|----------------------------------------------------------------||
  ...    ...    ...    ...    ...    ...   ...     ...
E|----------------------------------------------------------------||
B|----------------------------------------------------------------||
G|----------------------------------------------------------------||
D|-------------------------5588-77-10-10--------------------------||4x
A|5588558855885588-44774477---------------------------------------||
D|----------------------------------------------------------------||
(1:21)
E|--------------------------------------------------------------------||
B|--------------------------------------------------------------------||
G|--------------------------------------------------------------------||
D|0000000044433311-0000000044433311-0000000044433311-0000000044433311-||
A|0000000044433311-0000000044433311-0000000044433311-0000000044433311-||
D|0000000044433311-0000000044433311-0000000044433311-0000000044433311-||
  ................ ................ ................ ................
E|----------------------------------------------------------------||
B|----------------------------------------------------------------||
G|----------------------------------------------------------------||
D|-------------------------5588-77-10-10--------------------------||4x
A|5588558855885588-44774477---------------------------------------||
D|----------------------------------------------------------------||
(1:51)
E|----------------------------------------------------------------||
B|----------------------------------------------------------------||
G|----------------------------------------------------------------||
D|8--0-85--00-84--00-83-000000--00-85--00-84--00-83-000000--------||
A|8--0-85--00-84--00-83-000000--00-85--00-84--00-83-000000--------||
D|8--0-85--00-84--00-83-000000--00-85--00-84--00-83-000000--------||
           ..     ..    ......  ..     ..     ..    ......
E|----------------------------------------------------------------||
B|----------------------------------------------------------------||
G|----------------------------------------------------------------||
D|0-85x-0-84x-0-83x-000000--0-85x--0-84x--0-83x-000000------------||2x
A|0-85x-0-84x-0-83x-000000--0-85x--0-84x--0-83x-000000------------||
D|0-85x-0-84x-0-83x-000000--0-85x--0-84x--0-83x-000000------------||
  .     .     .     ......  .      .      .     ......
E|----------------------------------------------------------------||
B|----------------------------------------------------------------||
G|----------------------------------------------------------------||
D|0-85--00-84--00-83-0000000000--00-85--00-84--00-83-0000000000---||2x
A|0-85--00-84--00-83-0000000000--00-85--00-84--00-83-0000000000---||
D|0-85--00-84--00-83-0000000000--00-85--00-84--00-83-0000000000---||
                     ..........                      ..........
E|----------------------------------------------------------------||
B|----------------------------------------------------------------||
G|----------------------------------------------------------------||
D|0-85x-0-84x-0-83x-000000--0-85x--0-84x--0-83x-000000------------||
A|0-85x-0-84x-0-83x-000000--0-85x--0-84x--0-83x-000000------------||
D|0-85x-0-84x-0-83x-000000--0-85x--0-84x--0-83x-000000------------||
  .     .     .     ......  .      .      .     ......
E|----------------------------------------------------------------||
B|----------------------------------------------------------------||
G|----------------------------------------------------------------||
D|0-85x-0-84x-0-83x-000000--0-85x--0-84x--0-83x-00000~~-----------||
A|0-85x-0-84x-0-83x-000000--0-85x--0-84x--0-83x-00000~~-----------||
D|0-85x-0-84x-0-83x-000000--0-85x--0-84x--0-83x-00000~~-----------||
  .     .     .     ......  .      .      .     .....
(2:35) 
E|----------------------------------------------------------------------||
B|----------------------------------------------------------------------||
G|1010101212121212--1414141515151515-1010101212121212--1414141515151515-||
D|-x-x-x-x-x-x-x-x---x-x-x-x-x-x-x-x--x-x-x-x-x-x-x-x---x-x-x-x-x-x-x-x-||
A|-8-8-81010101010--1212121313131313--8-8-81010101010--1212121313131313-||
D|----------------------------------------------------------------------||
                   ^^^(repeat this line four times)^^^
(2:56)
E|-------------------------------------------------------------------||
B|-------------------------------------------------------------------||
G|3333333333-555555-----------------3333333333-555555----------------||
D|3333333333-555555-----------------3333333333-555555----------------||
A|1111111111-333333--0-1-0-3-1-0----1111111111-333333--0-1-0-3-1-0---||
D|------------------5-----------3---------------------5-----------3--||

E|-------------------------------------------------------------------||
B|-------------------------------------------------------------------||
G|3333333333-555555-----------------3333333333-555555----------------||
D|3333333333-555555-----------------3333333333-555555----------------||
A|1111111111-333333--0-1-0-3-1-0----1111111111-333333--0-1-0-3-1-0---||
D|------------------5-----------3---------------------5-----------3--||

E|----------------------------------------------------------------------||
B|----------------------------------------------------------------------||
G|1010101212121212--1414141515151515-1010101212121212--1414141515151515-||
D|-x-x-x-x-x-x-x-x---x-x-x-x-x-x-x-x--x-x-x-x-x-x-x-x---x-x-x-x-x-x-x-x-||
A|-8-8-81010101010--1212121313131313--8-8-81010101010--1212121313131313-||
D|----------------------------------------------------------------------||
                   ^^^(repeat this line four times)^^^
E|-------------------------------------------------------------------||
B|-------------------------------------------------------------------||
G|3333333333-555555-----------------3333333333-555555----------------||
D|3333333333-555555-----------------3333333333-555555----------------||
A|1111111111-333333--0-1-0-3-1-0----1111111111-333333--0-1-0-3-1-0---||
D|------------------5-----------3---------------------5-----------3--||

E|-------------------------------------------------------------------||
B|-------------------------------------------------------------------||
G|3333333333-555555-----------------3333333333-555555----------------||
D|3333333333-555555-----------------3333333333-555555----------------||
A|1111111111-333333--0-1-0-3-1-0----1111111111-333333--0-1-0-3-1-0---||
D|------------------5-----------3---------------------5-----------3--||
(3:56)
E|------||
B|------||
G|------||
D|-0~~~-||
A|-0~~~-||
D|-0~~~-||
|SOLO|  (4:17)
E|----------------------------------------------------------------||
B|----------------------------------------------------------------||
G|---------------------------------------------14~14-14p12h14-----||
D|7-7-5-7~-5h7-10~10-9h10p9-12~12-9h10-14~14~---------------------||
A|----------------------------------------------------------------||
D|----------------------------------------------------------------||
  .
E|-----------------------17-15-13-15-13-12-13~-13-12h13p12-12~12~-||
B|---------------17~-17~------------------------------------------||
G|16~16-14h16p14--------------------------------------------------||
D|----------------------------------------------------------------||
A|----------------------------------------------------------------||
D|----------------------------------------------------------------||

E|12-----------------------------------------------------------------||
B|--15-13-15-13-12-13~-13-12h13p12-----------------------------------||
G|-------------------------------------------------------------------||
D|--------------------------------14~-14~--------------12------------||
A|---------------------------------------12-14-15-12-15--14~-14-12h14||
D|-------------------------------------------------------------------||
                                          .  .  .  .  . . .
E|-----------------------------------------17-15-13-15-13-12-13~-13--||
B|----------------------------------17~-17~--------------------------||
G|------14-14-14-16b(17)-16-14h16p14---------------------------------||
D|14~14~-------------------------------------------------------------||
A|-------------------------------------------------------------------||
D|-------------------------------------------------------------------||

E|12h13p12-12~-12~-12---------------------------17~~~----------------||
B|-------------------15-13-15-13-12-13~-12h13p12---------------------||
G|-------------------------------------------------------------------||
D|-------------------------------------------------------------------||
A|-------------------------------------------------------------------||
D|-------------------------------------------------------------------||
|end of solo| (let ring out till 5:05)
E|----------------------------------------------------------------||
B|----------------------------------------------------------------||
G|----------------------------------------------------------------||
D|0000003333-0000003333-0000003333-0000003333---------------------||
A|0000003333-0000003333-0000003333-0000003333---------------------||
D|0000003333-0000003333-0000003333-0000003333---------------------||
  ...... ..  ...... ..  ...... ..  ...... ..  
E|-----------------------------------------------------------------------||
B|-----------------------------------------------------------------------||
G|-------------5h7---------------------------------5h7-------------------||
D|000000----5h7----00000-7h8p7-5h6p5--000000----5h7----00000-7h8p7-5h6p5-||
A|000000-5h7-------00000-7h8p7-5h6p5--000000-5h7-------00000-7h8p7-5h6p5-||
D|000000-----------00000-7h8p7-5h6p5--000000-----------00000-7h8p7-5h6p5-||
  ......           .....              ......           .....
E|-----------------------------------------------------------------------||
B|-----------------------------------------------------------------------||
G|-------------5h7---------------------------------5h7--------------5h7--||
D|000000----5h7----00000-7h8p7-5h6p5--000000----5h7----000000----5h7-----||
A|000000-5h7-------00000-7h8p7-5h6p5--000000-5h7-------000000-5h7--------||
D|000000-----------00000-7h8p7-5h6p5--000000-----------000000------------||
  ......           .....              ......           ......
(5:34)
E|----------------------------------------------------------------||
B|----------------------------------------------------------------||
G|----------------------------------------------------------------||
D|123-0-345-0-567-0-789\---123-0-345-0-567-0-789\-----------------||
A|123-0-345-0-567-0-789\---123-0-345-0-567-0-789\-2x--------------||
D|123-0-345-0-567-0-789\---123-0-345-0-567-0-789\-----------------||

E|----------------------------------------------------------------||
B|----------------------------------------------------------------||
G|----------------------------------------------------------------||
D|123-0-345-0-567-0-789\---123-0-345-0-567-0-789\-----------------||
A|123-0-345-0-567-0-789\---123-0-345-0-567-0-789\-2x--------------||
D|123-0-345-0-567-0-789\---123-0-345-0-567-0-789\-----------------||
  ..................       ..................    
E|----------------------------------------------------------------||
B|----------------------------------------------------------------||
G|----------------------------------------------------------------||
D|------345-0-------789\---------345-0-------789\-------0x--------||
A|------345-0-------789\---------345-0-------789\-2x----0x--------||
D|------345-0-------789\---------345-0-------789\-------0x--------||
(6:25)
E|---------------------------------------------------------------||
B|---------------------------------------------------------------||
G|--9----/-14--------9----/-14-----------------------------------||
D|--x-32x/--x-32x----x-32x/--x-32x-------------------------------||
A|--7----/-12--------7----/-12-----------------------------------||
D|---------------------------------------------------------------||

E|----------------------------------------------------------------||
B|----------------------------------------------------------------||
G|9999999999999999999999999999999914141414141414141414141414141414||
D|------(fast-picking)--------------------------------------------||
A|----------------------------------------------------------------||
D|----------------------------------------------------------------||

E|----------------------------------------------------------------||
B|----------------------------------------------------------------||
G|14\12\10101010---10/12/14141414---12\10\9-----------------------||
D|----------------------------------------------------------------||
A|----------------------------------------------------------------||
D|----------------------------------------------------------------||

E|----------------------------------------------------------------||
B|----------------------------------------------------------------||
G|9999999999999999999999999999999914141414141414141414141414141414||
D|------(fast-picking)--------------------------------------------||
A|----------------------------------------------------------------||
D|----------------------------------------------------------------||

E|12121212121212121212121212121212--------------------------------||
B|----------------------------------------------------------------||
G|----------------------------------------------------------------||
D|----------------------------------------------------------------||
A|----------------------------------------------------------------||
D|----------------------------------------------------------------||

E|--------------------------------------------------------------------||
B|--------------------------------------------------------------------||
G|--------------------------------------------------------------------||
D|2222222222222222222222222222222277777777777777777777777777777777----||
A|2222222222222222222222222222222277777777777777777777777777777777-2x-||
D|2222222222222222222222222222222277777777777777777777777777777777----||
  ................................................................
E|----------------------------------------------------------------||
B|----------------------------------------------------------------||
G|9999999999999999999999999999999914141414141414141414141414141414||
D|------(fast-picking)--------------------------------------------||
A|----------------------------------------------------------------||
D|----------------------------------------------------------------||

E|----------------------------------------------------------------||
B|----------------------------------------------------------------||
G|14\12\10101010---10/12/14141414---12\10\9-----------------------||
D|----------------------------------------------------------------||
A|----------------------------------------------------------------||
D|----------------------------------------------------------------||

E|----------------------------------------------------------------||
B|----------------------------------------------------------------||
G|9999999999999999999999999999999914141414141414141414141414141414||
D|------(fast-picking)--------------------------------------------||
A|----------------------------------------------------------------||
D|----------------------------------------------------------------||

E|----------------------------12~~~~~~~~~-------------------------||
B|----------------------------------------------------------------||
G|12121212121212121212-12-12--------------------------------------||
D|----------------------------------------------------------------||
A|----------------------------------------------------------------||
D|----------------------------------------------------------------||
End

||Guitar 2||
(0:26)
E|----------------------------------------------------------------||
B|----------------------------------------------------------------||
G|----------------------------------------------------------------||
D|--0~------------88x----------0~------------88x------------------||
A|--0~------------88x----------0~------------88x------------------||
D|--0~------------88x----------0~------------88x------------------||
(0:42)                                                              end
E|-----------------------------------------------------------------|--||
B|-----------------------------------------------------------------|--||
G|----------------3333333355555555-----------------3333333355555555|--||
D|00000000000000003333333355555555-00000000000000003333333355555555|0x||
A|00000000000000001111111133333333-00000000000000001111111133333333|0x||
D|0000000000000000-----------------0000000000000000----------------|0x||
                 ^^^(repeat this line two times)^^^
(1:06)
E|----------------------------------------------------------------||
B|----------------------------------------------------------------||
G|----------------------------------------------------------------||
D|0000000000000000444444443333111100000000000000004444444433331111||
A|0000000000000000444444443333111100000000000000004444444433331111||
D|0000000000000000444444443333111100000000000000004444444433331111||
                 ^^^(repeat this line two times)^^^
E|--------------------------------------------------------------------||
B|--------------------------------------------------------------------||
G|--------------------------------------------------------------------||
D|0000000044433311-0000000044433311-0000000044433311-0000000044433311-||
A|0000000044433311-0000000044433311-0000000044433311-0000000044433311-||
D|0000000044433311-0000000044433311-0000000044433311-0000000044433311-||
  ................ ................ ................ ................
E|----------------------------------------------------------------|---||
B|----------------------------------------------------------------|---||
G|----------------------------------------------------------------|---||
D|0000000000000000444444443333111100000000000000004444444433331111|-0x||
A|0000000000000000444444443333111100000000000000004444444433331111|-0x||
D|0000000000000000444444443333111100000000000000004444444433331111|-0x||
                 ^^^(repeat this line two times)^^^               ^end^
(1:57)
E|----------------------------------------------------------------||
B|----------------------------------------------------------------||
G|----------------------------------------------------------------||
D|000000----0-85x--0-84x--0-83x-000000--0-85x--0-84x--0-83x-000000||
A|000000----0-85x--0-84x--0-83x-000000--0-85x--0-84x--0-83x-000000||
D|000000----0-85x--0-84x--0-83x-000000--0-85x--0-84x--0-83x-000000||
  ......    .      .      .     ......  .      .      .     ......     
E|----------------------------------------------------------------||
B|----------------------------------------------------------------||
G|----------------------------------------------------------------||
D|0-85x-0-84x-0-83x-000000--0-85x--0-84x--0-83x-000000------------||
A|0-85x-0-84x-0-83x-000000--0-85x--0-84x--0-83x-000000------------||
D|0-85x-0-84x-0-83x-000000--0-85x--0-84x--0-83x-000000------------||
  .     .     .     ......  .      .      .     ......
E|----------------------------------------------------------------||
B|----------------------------------------------------------------||
G|----------------------------------------------------------------||
D|0-85--00-84--00-83-0000000000--00-85--00-84--00-83-0000000000---||2x
A|0-85--00-84--00-83-0000000000--00-85--00-84--00-83-0000000000---||
D|0-85--00-84--00-83-0000000000--00-85--00-84--00-83-0000000000---||
                     ..........                      .......... 
E|----------------------------------------------------------------||
B|----------------------------------------------------------------||
G|----------------------------------------------------------------||
D|0-85x-0-84x-0-83x-000000--0-85x--0-84x--0-83x-000000------------||
A|0-85x-0-84x-0-83x-000000--0-85x--0-84x--0-83x-000000------------||
D|0-85x-0-84x-0-83x-000000--0-85x--0-84x--0-83x-000000------------||
  .     .     .     ......  .      .      .     ......
E|----------------------------------------------------------------||
B|----------------------------------------------------------------||
G|----------------------------------------------------------------||
D|0-85x-0-84x-0-83x-000000--0-85x--0-84x--0-83x-00000~~------------||
A|0-85x-0-84x-0-83x-000000--0-85x--0-84x--0-83x-00000~~------------||
D|0-85x-0-84x-0-83x-000000--0-85x--0-84x--0-83x-00000~~------------||
  .     .     .     ......  .      .      .     .....
(2:37) [there is something more at the end of each line here, but 
it's really hard to hear.] \/
E|----------------------------------------------------------------||
B|----------------------------------------------------------------||
G|----------------------------------------------------------------||
D|----------------------------------------------------------------||
A|----------------11111111111111113333333333333333----------------||
D|0000000000000000------------------------------------------------||

E|----------------------------------------------------------------||
B|----------------------------------------------------------------||
G|----------------------------------------------------------------||
D|----------------------------------------------------------------||
A|--------------------------------11111111111111113333333333333333||
D|00000000000000000000000000000000--------------------------------||

E|----------------------------------------------------------------||
B|----------------------------------------------------------------||
G|3333333333-555555---------------3333333333-555555---------------||
D|3333333333-555555---------------3333333333-555555---------------||2x
A|1111111111-333333---------------1111111111-333333---------------||
D|-----------------0-2-3-0-5-3-2-3-----------------0-2-3-0-5-3-2-3||

E|----------------------------------------------------------------||
B|----------------------------------------------------------------||
G|----------------------------------------------------------------||
D|----------------------------------------------------------------||2x
A|--------------------------------11111111111111113333333333333333||
D|00000000000000000000000000000000--------------------------------||

E|----------------------------------------------------------------||
B|----------------------------------------------------------------||
G|3333333333-555555---------------3333333333-555555---------------||
D|3333333333-555555---------------3333333333-555555---------------||2x
A|1111111111-333333---------------1111111111-333333---------------||
D|-----------------0-2-3-0-5-3-2-3-----------------0-2-3-0-5-3-2-3||

E|----||
B|----||
G|----||
D|-0~-||
A|-0~-||
D|-0~-||
|SOLO|
enter at (4:37)
E|----------------------------------------------------------------||
B|----------------------------------------------------------------||
G|2222222222-55555-----------2222222222-55555---------------------||
D|2222222222-55555-55555-----2222222222-55555-55555---------------||2x
A|0000000000-33333-55555-----0000000000-33333-55555---------------||
D|-----------------55555----------------------55555---------------||
|end of solo|
(4:55)
E|----------------------------------------------------------------||
B|----------------------------------------------------------------||
G|----------------------------------------------------------------||
D|0-0-0-0--3-3-3-33------0-0-0-0--3-3-3-33------------------------||4x
A|0-0-0-0--3-3-3-33------0-0-0-0--3-3-3-33------------------------||
D|0-0-0-0--3-3-3-33------0-0-0-0--3-3-3-33------------------------||
             .                      . 
E|------------------------------------------------------------------||
B|------------------------------------------------------------------||
G|------------------------------------------------------------------||
D|0-0-00-0-00-00~--0-0-00-0-00-00~--0-0-00-0-00-00~--0-0-00-0-00-00~||2x
A|0-0-00-0-00-00~--0-0-00-0-00-00~--0-0-00-0-00-00~--0-0-00-0-00-00~||
D|0-0-00-0-00-00~--0-0-00-0-00-00~--0-0-00-0-00-00~--0-0-00-0-00-00~||
  ..............   ..............   ..............   ..............
(5:40)
E|----------------------------------------------------------------||
B|----------------------------------------------------------------||
G|----------------------------------------------------------------||
D|123-0-345-0-567-0-789\---123-0-345-0-567-0-789\-----------------||
A|123-0-345-0-567-0-789\---123-0-345-0-567-0-789\-----------------||
D|123-0-345-0-567-0-789\---123-0-345-0-567-0-789\-----------------||

E|----------------------------------------------------------------||
B|----------------------------------------------------------------||
G|----------------------------------------------------------------||
D|123-0-345-0-567-0-789\---123-0-345-0-567-0-789\-----------------||
A|123-0-345-0-567-0-789\---123-0-345-0-567-0-789\-2x--------------||
D|123-0-345-0-567-0-789\---123-0-345-0-567-0-789\-----------------||
  ..................       ..................
E|----------------------------------------------------------------||
B|----------------------------------------------------------------||
G|----------------------------------------------------------------||
D|123-0-------567-0--------123-0-------567-0-----------0x---------||
A|123-0-------567-0--------123-0-------567-0------2x---0x---------||
D|123-0-------567-0--------123-0-------567-0-----------0x---------||
(6:33)
E|---------------------------------------------------------------||
B|---------------------------------------------------------------||
G|--9----/-14--------9----/-14-----------------------------------||
D|--x-32x/--x-32x----x-32x/--x-32x-------------------------------||2x
A|--7----/-12--------7----/-12-----------------------------------||
D|---------------------------------------------------------------||

E|--------------------------------------------------------------------||
B|--------------------------------------------------------------------||
G|--------------------------------------------------------------------||
D|2222222222222222222222222222222277777777777777777777777777777777----||
A|2222222222222222222222222222222277777777777777777777777777777777-2x-||
D|2222222222222222222222222222222277777777777777777777777777777777----||
  ................................................................
E|---------------------------------------------------------------||
B|---------------------------------------------------------------||
G|--9----/-14--------9----/-14-----------------------------------||
D|--x-32x/--x-32x----x-32x/--x-32x-------------------------------||
A|--7----/-12--------7----/-12-----------------------------------||
D|---------------------------------------------------------------||

E|----------------------------------------------------------------||
B|----------------------------------------------------------------||
G|-12~----9~~~~---------------------------------------------------||
D|--x~----x-------------------------------------------------------||
A|-10~----7~~~~---------------------------------------------------||
D|----------------------------------------------------------------||
End

GivingUpHurtsTheMost:
Cries Of The Past(2000):
This is probly the Best Underoath song ever:

...i got kind of lazy with the timing numbers near 
the middle but its easy to figure out anyways

Intro 0:23, after drumming
E|----------------------------------------------|
B|----------------------------------------------|
G|----------------------------------------------|
D|----------------------------------------------|
A|----------------------------------------------|
D|000000-5h00000-3333333-6666666-555555-2222222-|

0:35
E|-----------|
B|-----------|
G|-----------|
D|1--8--2--7-|
A|1--8--2--7-|
D|1--8--2--7-|


E|---------------------|
B|---------------------|
G|---------------------|
D|0--0-0-0--0----------|
A|0--0-0-0--0--6-5-3-5-|
D|0--0-0-0--0----------|
PM|--m-m---------------|


E|---------------------|
B|---------------------|
G|---------------------|
D|0--0-0-0--0----------|
A|0--0-0-0--0--3-3-3-5-|
D|0--0-0-0--0----------|
PM|--m-m---------------|

After playing this the first time, you do the first ending, after the second, you play 
second inning.....etc.
E|-----------------------------------|
B|-----------------------------------|
G|-----------------------------------|
D|0-0-0-0--0-0-0-0--0-0-0-0--0-0-0-0-|
A|0-0-0-0--0-0-0-0--0-0-0-0--0-0-0-0-|
D|0-0-0-0--0-0-0-0--0-0-0-0--0-0-0-0-|

1st Ending 0:51
E|--------------------------------------|
B|--------------------------------------|
G|---------15h17h19----------15h17h19---|
D|15h17h19----------15h17h19------------|repeat
A|--------------------------------------|
D|--------------------------------------|

2nd Ending 0:57
E|-----------------------------------------|
B|15----13----11------------------10-11-10-|
G|---10----10----10-------9-10-12----------|
D|------------------10-12------------------|
A|-----------------------------------------|
D|-----------------------------------------|

3rd Ending 1:02

E|----------------------------------------|
B|----------------------------------------|
G|---2---3----5--5-3-2--------------------|
D|-00--00--000--0-------------------------|
A|----------------------------------------|
D|----------------------------------------|

E|---------------------------------------|
B|---------------------------------------|
G|---------------------------------------|
D|---------------------------------------|
A|00000-88888-77777--------77777---------| play about 9 times
D|------------------555555-------333333--|

E|-----------------------------------------------|
B|-----------------------------------------------|
G|-----------------------------------------------|
D|-----------------------------------------------|
A|7-7/8-8/10-10/12--7777777-8888888-333333333333-|
D|-----------------------------------------------|

1:28
E|--------------------------------|
B|--------------------------------|
G|--------------------------------|
D|7-7-----------5-5-----------3-3-|
A|7-7-777777777-5-5-777777777-3-3-|
D|7-7-----------5-5-----------3-3-|

1:38
E|----------------------------------------|
B|----------------------------------------|
G|----------------------------------------|
D|----------------------------------------|
A|7777777777-8888888888-3333333333--------|
D|----------------------------------------|

2:00
E|--------------------|---------------------|
B|--------------------|---------------------|
G|2-----2-------------|2--------------------|
D|2-2-3---3-2-3--3-3-3|2-2-3-5-3-2-3--3-3-3-|
A|0-----------3--3-3-3|0-----------3--3-3-3-|
D|------------3--3-3-3|------------3--3-3-3-|
PM|-m-m---m-m----m-m--|--m-m---m-m----m-m---|

2:09
E|--------------|--------------|
B|--------------|--------------|
G|-2-2----------|--------------|
D|-2-2-2-5-3-2-3|3-3-2-3-2-0-2-|
A|-0-0----------|3-3-----------|
D|--------------|3-3-----------|
PM|m-m---m-m-----m-m---m-m-----|

2:18
E|----------------------------------------|
B|----------------------------------------|
G|----------------------------------------|
D|7--(7)-5-5--(5)-3-3--(3)-5-5------------|
A|7--(7)-5-5--(5)-3-3--(3)-5-5------------|
D|7--(7)-5-5--(5)-3-3--(3)-5-5------------|
PM|---m--------m--------m-----------------|

2:22
E|-----------------------------------------|
B|-----------------------------------------|
G|-----------------------------------------|
D|-----------------------------------------|
A|-7-10-8-7-7-3-8-7-5-3-8-7-8-7------------|
D|-----------------------------------------|
PM|m-m-m-m-m-m-m-m-m-m-m-m-m-m-m-----------|


E|------------------------------------------|
B|------------------------------------------|
G|------------------------------------------|
D|3--3-3-3--3-3-5--5-5-5--5-5------7------7-|
A|3--3-3-3--3-3-5--5-5-5--5-5------7------7-|
D|3--3-3-3--3-3-5--5-5-5--5-5-7777-7--777-7-|
PM|--m-m----m-m----m-m----m-m-mmmm----mmmm--|

E|-------------------------|
B|-------------------------|
G|-------------------------|
D|----------7------------7-|
A|----------7------------7-|
D|-77777777-7--777777777-7-|
PM|mmmmmmmm----mmmmmmmmm---|

E|------------------------|----------------------|
B|------------------------|----------------------|
G|2--4-5-7----------------|2--4-5-7--------------|
D|2--4-5-7-3-2-0-------0-2|2--4-5-7-3--3-3-3/5-5-|
A|0--2-3-5-3-----3-2-3----|0--2-3-5-3--3-3-3/5-5-|
D|---------3--------------|---------3--3-3-3/5-5-|
PM|------------------------------------m-m-------|

E|-------------------------|-------------5-5-|
B|-------------------------|-----------------|
G|2--4-5-7-----------------|2--4-5-7---------|
D|2--4-5-7-3-2-0-----0-2-3-|2--4-5-7-3-------|
A|0--2-3-5-3-----3-2-------|0--2-3-5-3-------|
D|---------3---------------|---------3-------|
Those are all the little transitions into the next riff. After you play all four, you go 
to play the second one.

E|-----------------------------------------|
B|-----------------------------------------|
G|-----------------------------------------|
D|-----------------------------------------|
A|-000000000-222-333333-55-----------------|
D|-------------------------3333333-5555555-|
PM|mmmmmmmmm-mmm-mmmmmm-mm-mmmmmmm-mmmmmmm-|

Solo
For this, I'm gonna have a "*" as a symbol for the really fast picking. You just gotta 
for the timing.
E|------------------------------------|
B|------------------------------------|
G|------------------------------------|
D|5***********-7*********-10**********
A|------------------------------------|
D|------------------------------------|

E|----------------------------------------|
B|----------------------------------------|
G|----------------------------------------|
D|14*******-12*******-14***-12****-10**---|
A|----------------------------------------|
D|----------------------------------------|

E|--------------------------------------|
B|-----------------------------a.f.-----|
G|-----------------------7-7-7-7b(9)7---|
D|5*********-7**********--------------7-|
A|--------------------------------------|
D|--------------------------------------|

E|5*******-7*******-8*******
B|--------------------------|
G|--------------------------|
D|--------------------------|
A|--------------------------|
D|--------------------------|

|E|5********-7***-8***/15*******---|
B|---------------------------------|
G|---------------------------------|
D|---------------------------------|repeat
A|---------------------------------|
D|---------------------------------|

Fast Picking
E|---------------------|
B|---------------------|
G|---------------------|
D|8-7-5-3-8-7-5-7-5-3--|
A|---------------------|
D|---------------------|

Fast picking again
E|---------------------------------|
B|---------------------------------|
G|3---2-----2------8--7--8-7h8p7---|
D|-------3----3--8---------------8-|
A|---------------------------------|
D|---------------------------------|

Pause, then
E|--------------------------------------|
B|--------------------------------------|
G|--------------------------------------|
D|8--8-8-8--8-8-8--8-8-8-fast picking!--|
A|8--8-8-8--8-8-8--8-8-8-8---7----3---0-|
D|8--8-8-8--8-8-8--8-8-8----------------|


E|-------|-------|----------|-------|-------|------------|
B|-------|-------|----------|-------|-------|------------|
G|-------|-------|----------|-------|-------|------------|
D|-0--0--|0-0-0-0|----------|-------|-------|------------|
A|-0--0--|0-0-0-0|10-8-7-8--|8-7-5-7|-------|------------|
D|-0--0--|0-0-0-0|----------|-------|7-5-3-5|-12p10p0h12-|
PM|m--m---m-m-m-m----------------------------------------|


E|--------|-------|--------|----------|
B|--------|-------|--------|----------|
G|--------|-------|--------|----------|
D|--------|-------|--------|----------|
A|10-8-7-8|8-7-5-7|10-8-7-8|12-10-8-10|
D|--------|-------|--------|----------|
reverse these


|--------|-----------|-----------|
B|-------|-----------|-----------|
G|-------|-----------|-----------|
D|-85/85-|-74/74-----|-107/107---|
A|-85/85-|-74/74-----|-107/107---|
D|-85/85-|-74/74-----|-107/107---|

        2x
E|--------|--------|--------------|
B|--------|--------|--------------|
G|--------|--------|--------------|
D|--------|--------|--------------|
A|--------|--------|------3-------|
D|-00000-2|-00000-3|33333-3-------|
PM|m-m---m-m---m-m----------------|


E|-------------------------|
B|-------------------------|
G|-------------------------|
D|-0-2-3-0-2-3-0-3-8-5-7-3-|
A|-0-2-3-0-2-3-0-3-8-5-7-3-|
D|-0-2-3-0-2-3-0-3-8-5-7-3-|
PM|m-m---m-m---m-m---------|


E|-------------------------|
B|-------------------------|
G|-------------------------|
D|-2-2-2-2-2-0-0-5-0-7-3p0-|
A|-2-2-2-2-2---------------|
D|-2-2-2-2-2---------------|
PM|m-m-m-m-m-m-m---m-------|

E|------------------------|----------------------|
B|------------------------|----------------------|
G|------------------------|----------------------|
D|------------------------|----------------------|
A|-----3-3-----3p0-----3p0|----5-5p0----7-7----8-|
D|-0-0-----0-0-----0-0----|0-0-------0-0----0-0--|
PM|m-m-----m-m-----m-m-----m-m-------m-m----m-m--|

E|-----------|------------|
B|-----------|------------|
G|-----------|------------|
D|-2222222-2-|-33333333-3-|
A|-2222222-2-|-33333333-3-|
D|-2222222-2-|-33333333-3-|
PM|mmmmmmm-----mmmmmmmm---|

Outro    7:11-End of song 
E|----------------------------------------|
B|--------------------------------3-------|
G|--------------------5-----5-------------|
D|--3---2---------------3-----3-------3---|
A|----------3---3-0-1-----5-----5-------5-|
D|0---0---0---0---------------------------|

Underoath
 Walking Away
 Cries of the Past
 tabbed by:!normajean!


|---------------------------------------------|
|---------------------------------------------|
|---------------------------------------------|
|---3---3---3---3---3----4---4---4---4---4-3--|
|--1---1---1---1---1-1--1---1---1---1---1-----|
|-1---1---1---1---1----1---1---1---1---1------|
  ... ... ... ... .... ... ... ... ... ... .

|-----------------------------------|
|-----------------------------------|
|-----------------------------------|
|-11111111111111114444444444444444--|
|-11111111111111114444444444444444--|
|-11111111111111114444444444444444--|

|---------------------------------|
|---------------------------------|
|---------10---------------13-----| this comes in at 0:38
|-8---------------11--------------|
|---------------------------------|
|---------------------------------|

|-------------------------|
|-------------------------|
|-------------------------|this is played a bunch of times
|-0-1-0-4-0-3-0-1-0-6-0-4-|
|-------------------------|
|-------------------------|
  . . . . . . . . . . . .

|-------------------------|
|-------------------------|
|-------------------------|then you play this
|-0-1-0-4-0-3-0-1-0-6-0-4-|
|-0-1-0-4-0-3-0-1-0-6-0-4-|
|-0-1-0-4-0-3-0-1-0-6-0-4-|
  . . . . . . . . . . . .

|--------------------------------------------------|
|--------------------------------------------------|
|--------------------------------------------------|
|-------1-----4-----3-----------1-------8\-----6\--|
|-------1-----4-----3-----------1------------------|
|-0000001-----4-----3-----0000001---0-0----0-0-----|
  ......                  ......    . .    . .

|-----------------------------------|
|-----------------------------------|
|-----------------------------------|
|-000010000300005000000100-6----3---|
|--------------------------6----3---|
|--------------------------6----3---|

|----------------------------------------------|
|----------------------------------------------|
|----------------------------------------------|
|--------------------------------------------6-|
|--------------------------------------------6-|
|-111000666000111000666000111000666000111000-6-|
  ..........................................

|----------------------------------|---|
|----------------------------------|---|
|----------------------------------|---|
|-000010000300005000000100-6----3--|-0-|
|--------------------------6----3--|-0-|
|--------------------------6----3--|-0-|


im working on this solo. ill have it soon.


|---------------------------|
|-------44443333------------|
|-333333------------6666----|this is played in the drum solo
|---------------4444------0-|
|-------------------------0-|
|-------------------------0-|

|----------------------------------------------|
|----------------------------------------------|
|----------------------------------------------|
|-8888888p7h8p7777777h8p7\4444444h5p4h5555555--|
|----------------------------------------------|
|----------------------------------------------|

-------------------------------------------------------------------------------
			     And I Dreamt of You - Underoath
-------------------------------------------------------------------------------
Tabbed by: Andrew Black
Email: aj66602@yahoo.com

Tuning: drop d (DADGBE)

Here's most of the song.There are a few parts that I haven't figured out yet so
I noted that I either skipped them or that I'm not sure about them .  Once
I figure them out I'll repost this.


Intro: 0:00 - 0:19
Guitar 1					8x
e|----|------------------------------------------------------------------------|
B|----|------------------------------------------------------------------------|
G|----|------------------------------------------------------------------------|
D|--1-|-0--30-1-1--------------------------------------------------------------|
A|--1-|-0--30-1-1--------------------------------------------------------------|
D|--1-|-0--30-1-1--------------------------------------------------------------|

Guitar 2					2x
e|----------|----------------------------------------------------------------|
B|----------|----------------------------------------------------------------|
G|----------|----------------------------------------------------------------|
D|-111333555|7777777777777777777888888888-11-10-8-10-------------------------|
A|----------|----------------------------------------------------------------|
D|----------|----------------------------------------------------------------|

0:19 – 0:29
Guitar 1					2x
e|---------------------------------------------------------------------------|
B|---------------------------------------------------------------------------|
G|---------------------------------------------------------------------------|
D|-1-0-30-1-1----------------------------------------------------------------|
A|-1-0-30-1-1----------------------------------------------------------------|
D|-1-0-30-1-1----------------------------------------------------------------|

Guitar 2
e|---------------------------------------------------------------------------|
B|---------------------------------------------------------------------------|
G|---------------------------------------------------------------------------|
D|--7777777777777--888-------------------------------------------------------|
A|---------------------------------------------------------------------------|
D|---------------------------------------------------------------------------|

Guitar 2
e|---------------------------------------------------------------------------|
B|---------------------------------------------------------------------------|
G|---------------------------------------------------------------------------|
D|--888888888888888888--11-10-8-10-------------------------------------------|
A|---------------------------------------------------------------------------|
D|---------------------------------------------------------------------------|

0:30 – 0:44 (Not sure about Guitar 1)
Guitar 1					10x
e|---------------------------------------------------------------------------|
B|---------------------------------------------------------------------------|
G|---------------------------------------------------------------------------|
D|--5-8-4-7-2-5-3-6----------------------------------------------------------|
A|---------------------------------------------------------------------------|
D|---------------------------------------------------------------------------|

Guitar 2 (Start at 0:33 )			4x
e|---------------------------------------------------------------------------|
B|---------------------------------------------------------------------------|
G|---------------------------------------------------------------------------|
D|---------------------------------------------------------------------------|
A|---------------------------------------------------------------------------|
D|--0000000000000000008888888888888888888------------------------------------|

End Chord
e|---------------------------------------------------------------------------|
B|---------------------------------------------------------------------------|
G|---------------------------------------------------------------------------|
D|---0-----------------------------------------------------------------------|
A|---0-----------------------------------------------------------------------|
D|---0-----------------------------------------------------------------------|

0:45 – 1:01
Guitar 1
e|---------------------------------------------------------------------------|
B|---------------------------------------------------------------------------|
G|---------------------------------------------------------------------------|
D|--0000-1111-3333-0000-1111-3333-5555-11-33---------------------------------|
A|---------------------------------------------------------------------------|
D|---------------------------------------------------------------------------|

Guitar 2 (Not Sure)
e|---------------------------------------------------------------------------|
B|---------------------------------------------------------------------------|
G|---------------------------------------------------------------------------|
D|---------------------------------------------------------------------------|
A|---------------------------------------------------------------------------|
D|---------------------------------------------------------------------------|

1:01 – 1:08
Guitar 1 (Not Sure)
e|---------------------------------------------------------------------------|
B|---------------------------------------------------------------------------|
G|---------------------------------------------------------------------------|
D|---------------------------------------------------------------------------|
A|---------------------------------------------------------------------------|
D|---------------------------------------------------------------------------|

Guitar 2 (Not Sure)
e|---------------------------------------------------------------------------|
B|---------------------------------------------------------------------------|
G|---------------------------------------------------------------------------|
D|---------------------------------------------------------------------------|
A|---------------------------------------------------------------------------|
D|---------------------------------------------------------------------------|

1:08 – 1:38
Guitars 1&2				8x
e|---------------------------------------------------------------------------|
B|---------------------------------------------------------------------------|
G|---------------------------------------------------------------------------|
D|--77775733335p0--88-55-33-11-----------------------------------------------|
A|-----------------88-55-33-11-----------------------------------------------|
D|-----------------88-55-33-11-----------------------------------------------|

1:38 – 1:50
Guitar 1					2x
e|---------------------------------------------------------------------------|
B|---------------------------------------------------------------------------|
G|---------------------------------------------------------------------------|
D|--0000-1111-0000-1111-0000-1111-0000-1-3-4-3-1-3---------------------------|
A|---------------------------------------------------------------------------|
D|---------------------------------------------------------------------------|

1:51 – 2:01
Guitar 1					2x
e|---------------------------------------------------------------------------|
B|---------------------------------------------------------------------------|
G|---------------------------------------------------------------------------|
D|---------------------------------------------------------------------------|
A|--55555-35653-55555-35653-55555-35653-555555666888-------------------------|
D|---------------------------------------------------------------------------|

2:02 – 2:23
Guitar 1					4x
e|---------------------------------------------------------------------------|
B|---------------------------------------------------------------------------|
G|---------------------------------------------------------------------------|
D|---------------------------------------------------------------------------|
A|--5-5-555-3-5-6-5-5-555-3-5-6-5-5-555-3-5-6-5-555566688--------------------|
D|---------------------------------------------------------------------------|

2:23 – 3:03
Acoustic Guitar 1
e|---------------------------------------------------------------------------|
B|---------------------------------------------------------------------------|
G|----2--------2---------3---------3------------2h3p0------------------------|
D|-------0--------0---------0----------0-------------------------------------|
A|---------------------------------------------------------------------------|
D|-0--------0---------0--------0------------0--------------------------------|

e|---------------------------------------------------------------------------|
B|---------------------------------------------------------------------------|
G|-----2---------2--------3--------3---------2h3p0---------------------------|
D|---------0--------0--------0--------0--------------------------------------|
A|---------------------------------------------------------------------------|
D|--0---------0--------0--------0--------0-----------------------------------|


e|---------------------------------------------------------------------------|
B|---------------------------------------------------------------------------|
G|-----0--------0---------0---------0----------------------------------------|
D|--------0--------0---------0----------0------------------------------------|
A|---------------------------------------------------------------------------|
D|--0--------0---------0--------0----------0---------------------------------|

e|---------------------------------------------------------------------------|
B|---------------------------------------------------------------------------|
G|-------2--------2---------3---------3--------------------------------------|
D|----------0--------0----------0----------0---------------------------------|
A|---------------------------------------------------------------------------|
D|---0--------0----------0---------0----------0------------------------------|
					2x
e|---------------------------------------------------------------------------|
B|---------------------------------------------------------------------------|
G|------------------8-7-7-7----------------5/6-5-5-5-------------------------|
D|---------------------------------------------------------------------------|
A|---5---(5)-(5)----------------3-(3)-(3)------------------------------------|
D|---5---(5)-(5)----------------3-(3)-(3)------------------------------------|
					4x
e|---------------------------------------------------------------------------|
B|---------------------------------------------------------------------------|
G|------0----------0---------2------2---------2h3p0--------------------------|
D|---------0----------0--------0-------0-------------------------------------|
A|---------------------------------------------------------------------------|
D|--0---------0----------0-------0---------0---------------------------------|

3:05 – 3:23
Guitars 1&2				5x
e|---------------------------------------------------------------------------|
B|---------------------------------------------------------------------------|
G|---------------------------------------------------------------------------|
D|--0-0-0-0-0-0-0-0-0-0-0-0-0-0-0-0-0-6--------------------------------------|
A|--0-0-0-0-0-0-0-0-0-0-0-0-0-0-0-0-0-6--------------------------------------|
D|--0-0-0-0-0-0-0-0-0-0-0-0-0-0-0-0-0-6--------------------------------------|

3:23 – 3:32
Guitars 1&2				4x
e|---------------------------------------------------------------------------|
B|---------------------------------------------------------------------------|
G|---------------------------------------------------------------------------|
D|---------------------------------------------------------------------------|
A|---------------------------------------------------------------------------|
D|--222-555-666-333----------------------------------------------------------|

3:33 – 3:43
Guitars 1&2				4x
e|---------------------------------------------------------------------------|
B|---------------------------------------------------------------------------|
G|---------------------------------------------------------------------------|
D|---------------------------------------------------------------------------|
A|---------------------------------------------------------------------------|
D|--000000-22222-33333-55555-------------------------------------------------|


3:44 – 3:55
Guitars 1&2				4x
e|---------------------------------------------------------------------------|
B|---------------------------------------------------------------------------|
G|---------------------------------------------------------------------------|
D|---------------------------------------------------------------------------|
A|--------0------2-------3--------5----5-------------------------------------|
D|--000----2222-----3333----5555----55---------------------------------------|

3:55 – 4:05
Guitars 1&2				2x
e|---------------------------------------------------------------------------|
B|---------------------------------------------------------------------------|
G|---------------------------------------------------------------------------|
D|-----------------------6-5-3--6-5-3----------------------------------------|
A|-----------------------6-5-3--6-5-3----------------------------------------|
D|--2222223333333222222--6-5-3--6-5-3----------------------------------------|
Pm                       - - -    - -

4:05 – 4:21
Guitar 1 (Not sure about fills)			2x
e|---------------------------------------------------------------------------|
B|---------------------------------------------------------------------------|
G|---------------------------------------------------------------------------|
D|------------------------------------------------------888777---------------|
A|------------------5-6-7-8-5-6-7-8------------------------------------------|
D|--222333311111-----------------------22222233311111------------------------|

4:22- 4:25
Guitar 1					2x
e|---------------------------------------------------------------------------|
B|---------------------------------------------------------------------------|
G|------99-----99-----55-----77----------------------------------------------|
D|---------------------------------------------------------------------------|
A|--777----777----333---555--------------------------------------------------|
D|---------------------------------------------------------------------------|

4:26 – 4:32
Guitars 1&2				2x
e|---------------------------------------------------------------------------|
B|---------------------------------------------------------------------------|
G|--9-9-9-9-5-5-7-7----------------------------------------------------------|
D|---------------------------------------------------------------------------|
A|--7-7-7-7-3-3-5-5----------------------------------------------------------|
D|---------------------------------------------------------------------------|

4:32 – 4:44
Guitars 1&2				4x
e|---------------------------------------------------------------------------|
B|---------------------------------------------------------------------------|
G|---------------------------------------------------------------------------|
D|--9-9999-99-5-55-7-77------------------------------------------------------|
A|--9-9999-99-5-55-7-77------------------------------------------------------|
D|--9-9999-99-5-55-7-77------------------------------------------------------|


4:45 – 4:55
Guitar 1					4x
e|---------------------------------------------------------------------------|
B|---------------------------------------------------------------------------|
G|---------------------------------------------------------------------------|
D|---------------------------------------------------------------------------|
A|--9999999-11p999-555-999-777-999-------------------------------------------|
D|---------------------------------------------------------------------------|

Guitar 2					4x
e|---------------------------------------------------------------------------|
B|---------------------------------------------------------------------------|
G|---------------------------------------------------------------------------|
D|---------------------------------------------------------------------------|
A|---------------------------------------------------------------------------|
D|---9999999999-555555555-7777777777-----------------------------------------|

4:55 – 5:06
Guitars 1&2				4x
e|---------------------------------------------------------------------------|
B|---------------------------------------------------------------------------|
G|---------------------------------------------------------------------------|
D|--9-9------9-9------5-5-----7-7--------------------------------------------|
A|--9-9h11p9-9-9h10p9-5-5h7p5-7-7h9p7----------------------------------------|
D|--9-9------9-9------5-5-----7-7--------------------------------------------|

5:07- 5:12
Guitar 1&2				2x
e|---------------------------------------------------------------------------|
B|---------------------------------------------------------------------------|
G|---------------------------------------------------------------------------|
D|---------------------------------------------------------------------------|
A|-7h9p7-7h9p7 7h9p7 7h9p7 3h5p3 3h5p3 5h7p5 9h11p9--------------------------|
D|---------------------------------------------------------------------------|

5:12 – 5:19
Guitars 1&2				2x
e|---------------------------------------------------------------------------|
B|---------------------------------------------------------------------------|
G|---------------------------------------------------------------------------|
D|---------------------------------------------------------------------------|
A|-9h11p9-9h11p9-9h11p9-9h11p9-5h7p5-5h7p5-7h9p7-7h9p7-----------------------|
D|---------------------------------------------------------------------------|

5:19 – 5:22
Guitar 1
e|---------------------------------------------------------------------------|
B|---------------------------------------------------------------------------|
G|---------------------------------------------------------------------------|
D|-9-999-9-9\----------------------------------------------------------------|
A|-9-999-9-9\----------------------------------------------------------------|
D|-9-999-9-9\----------------------------------------------------------------|


5:23 – 5:44
Guitars 1&2 (Not Sure About this Riff)		2x
e|---------------------------------------------------------------------------|
B|---------------------------------------------------------------------------|
G|---------------------------------------------------------------------------|
D|-9- 9999-5-9-9999-5--------------------------------------------------------|
A|-9---------9-----------99999997777555599999977777555-----------------------|
D|-9---------9---------------------------------------------------------------|

5:45 – 5:56
e|---------------------------------------------------------------------------|
B|---------------------------------------------------------------------------|
G|---------------------------------------------------------------------------|
D|---No Idea-----------------------------------------------------------------|
A|---------------------------------------------------------------------------|
D|---------------------------------------------------------------------------|

5:56 – 6:06
Guitars 1&2
e|---------------------------------------------------------------------------|
B|---------------------------------------------------------------------------|
G|---------------------------------------------------------------------------|
D|---------------------------------------------------------------------------|
A|--999999999777777555555--99999999997777755555------------------------------|
D|---------------------------------------------------------------------------|

6:07- 6:18
Guitars 1&2				4x
e|---|-----------------------------------------------------------------------|
B|---|-----------------------------------------------------------------------|
G|---|-----------------------------------------------------------------------|
D|--0|-0000-0009-9995-5550---------------------------------------------------|
A|--0|-0000-0009-9995-5550---------------------------------------------------|
D|--0|-0000-0009-9995-5550---------------------------------------------------|

6:18 – 6:31
Guitar 1					4x
e|---------------------------------------------------------------------------|
B|---------------------------------------------------------------------------|
G|---------------------------------------------------------------------------|
D|--0000000-33333-55555--6666------------------------------------------------|
A|---------------------------------------------------------------------------|
D|---------------------------------------------------------------------------|

Guitar 2					4x
e|---------------------------------------------------------------------------|
B|---------------------------------------------------------------------------|
G|---------------------------------------------------------------------------|
D|---------------------------------------------------------------------------|
A|---------------------------------------------------------------------------|
D|-0000000-888888-77777-5555-------------------------------------------------|

6:32- 6:45
Guitar 1 (Not Sure)
e|---------------------------------------------------------------------------|
B|---------------------------------------------------------------------------|
G|---------------------------------------------------------------------------|
D|---------------------------------------------------------------------------|
A|------9----9---7---5---5---------------------------------------------------|
D|--999--999--77--55---5-----------------------------------------------------|

Guitar 2
e|---------------------------------------------------------------------------|
B|---------------------------------------------------------------------------|
G|---------------------------------------------------------------------------|
D|---------------------------------------------------------------------------|
A|---------------------------------------------------------------------------|
D|-00000000-8888888-77777-555555---------------------------------------------|

6:57 – 7:25
Guitars 1&2				4x
e|---------------------------------------------------------------------------|
B|---------------------------------------------------------------------------|
G|---------------------------------------------------------------------------|
D|-0---3---6---0---3---6--8--------------------------------------------------|
A|-0---3---6---0---3---6--8--------------------------------------------------|
D|-0---3---6---0---3---6--8--------------------------------------------------|

7:25 – 7:29
Guitar 1 & 2
e|---------------------------------------------------------------------------|
B|---------------------------------------------------------------------------|
G|------5----5----5----5----5--------5----5----5------555--------------------|
D|-----------------------------5---------------------------------------------|
A|--33---3----3----3----3---------33----3----3----33--333--------------------|
D|---------------------------------------------------------------------------|

7:29 – 7:38
Guitar 1&2				2x
e|---------------------------------------------------------------------------|
B|---------------------------------------------------------------------------|
G|-----5------5----5----5-----5--------5-----5-------------------------------|
D|-------------------------------5---------------8--6--3---------------------|
A|-33----3-----3----3-----3---------33----3------8--6--3---------------------|
D|-----------------------------------------------8--6--3---------------------|

7:38 – 7:48
Guitars 1&2
e|---------------------------------------------------------------------------|
B|---------------------------------------------------------------------------|
G|---------------------------------------------------------------------------|
D|------5----5---5----5----5-----5---8-6-3-----------------------------------|
A|---333--333-333--333--333--333-----8-6-3-----------------------------------|
D|-----------------------------------8-6-3-----------------------------------|


7:49 – 8:02  The order of this part is really hard to figure out
Guitar 1       so this is the closest I could get.
e|---------------------------------------------------------------------------|
B|---------------------------------------------------------------------------|
G|---------------------------------------------------------------------------|
D|---------------------------------------------------------------------------|
A|-5p0-8p0-7p0-3p0-7p0-5p0-3p0-5p0-3p0-5p0-7p0-3p0-5p0-7p0-5p0-3p0-----------|
D|---------------------------------------------------------------------------|

8:02 – 8:16
Guitar 1&2
e|---------------------------------------------------------------------------|
B|---------------------------------------------------------------------------|
G|---------------------------------------------------------------------------|
D|-------2-------3-2-0---------3-5--------2-------3-2-0--------3-5-3---------|
A|-0-3-5---5-3-0--------3-2-0--3-5--0-3-5---5-3-0-------3-2-0--3-5-3---------|
D|-----------------------------3-5-----------------------------3-5-3---------|

8:16 – 8:29
Guitar 1
e|---------------------------------------------------------------------------|
B|---------------------------------------------------------------------------|
G|---------------------------------------------------------------------------|
D|-000000--------------000000-------3-5-6------------------------------------|
A|-000000-3-5-6--6-5-3-000000-3-5-6------------------------------------------|
D|-000000--------------000000------------------------------------------------|

e|---------------------------------------------------------------------------|
B|---------------------------------------------------------------------------|
G|---------------------------------------------------------------------------|
D|-000000---------------6-5-3------------------------------------------------|
A|-000000-3-5-6--6-5-3---------6-5-3--6-5-3--3-2-0---------------------------|
D|-000000--------------------------------------------------------------------|

e|---------------------------------------------------------------------------|
B|---------------------------------------------------------------------------|
G|---------------------------------------------------------------------------|
D|-000000--------------000000-------3-5-6------------------------------------|
A|-000000-3-5-6--6-5-3-000000-3-5-6------------------------------------------|
D|-000000--------------000000------------------------------------------------|

e|---------------------------------------------------------------------------|
B|---------------------------------------------------------------------------|
G|---------------------------------------------------------------------------|
D|-000000---------------6-5-3--------6-5-3-----------------------------------|
A|-000000-3-5-6--6-5-3---------6-5-3--------6-5-3----------------------------|
D|-000000--------------------------------------------------------------------|


8:29 – 8:38
Guitars 1&2					2x
e|---------------------------------------------------------------------------|
B|---------------------------------------------------------------------------|
G|---------------------------------------------------------------------------|
D|----------55555-1111111----------------------------------------------------|
A|-33333---------------------------------------------------------------------|
D|------------------------------6666666666666666-----------------------------|

8:38 – 8:48
Guitars 1&2
e|---------------------------------------------------------------------------|
B|---------------------------------------------------------------------------|
G|---------------------------------------------------------------------------|
D|----------55555-11111------------------------------------------------------|
A|-33333---------------------------555555-666666-----------------------------|
D|---------------------------66666-------------------------------------------|

8:48 – 9:08
Guitars 1 & 2
e|---------------------------------------------------------------------------|
B|---------------------------------------------------------------------------|
G|---------------------------------------------------------------------------|
D|----------------------0-22-0-232-0-----------------------------------------|
A|----------------------0-22-0-232-0-----------------------------------------|
D|-333333-666666-222222-0-22-0-232-0-----------------------------------------|

e|---------------------------------------------------------------------------|
B|---------------------------------------------------------------------------|
G|---------------------------------------------------------------------------|
D|----------------------------------666666-555555--3333333-------------------|
A|---------------------------------------------------------------------------|
D|-3333333-666666-222222-----------------------------------------------------|

e|---------------------------------------------------------------------------|
B|---------------------------------------------------------------------------|
G|---------------------------------------------------------------------------|
D|-----------------------0-22-0-232-0----------------------------------------|
A|-----------------------0-22-0-232-0----------------------------------------|
D|-3333333-666666-222222-0-22-0-232-0----------------------------------------|

e|---------------------------------------------------------------------------|
B|---------------------------------------------------------------------------|
G|---------------------------------------------------------------------------|
D|----------------------------------666666-555555-333333---------------------|
A|---------------------------------------------------------------------------|
D|-333333-666666-2222222-----------------------------------------------------|

9:08 – 9:18
Guitars 1&2				4x
e|---------------------------------------------------------------------------|
B|---------------------------------------------------------------------------|
G|---------------------------------------------------------------------------|
D|----------555555-1111111---------------------------------------------------|
A|-33333--------------------------------55555-666666-------------------------|
D|-------------------------------666666--------------------------------------|

9:18 – 9:24 Guitars 1&2 play alternately
Guitar 1
e|---------------------------------------------------------------------------|
B|---------------------------------------------------------------------------|
G|-9-----------9------------7-----------5------------4-----------------------|
D|-9-----------9------------7-----------5------------4-----------------------|
A|-7-----------7------------5-----------3------------2-----------------------|
D|---------------------------------------------------------------------------|

Guitar 2 (Tremolo Picking)
e|---------------------------------------------------------------------------|
B|---------------------------------------------------------------------------|
G|----------------7----------------------------------------------------------|
D|---9-10-9---------9-10-------9-10-9------7----7----------------------------|
A|-------------------------------------------10------------------------------|
D|---------------------------------------------------------------------------|

9:25 – 9:35
Guitar 1 (Tremolo picking)			2x
e|---------------------------------------------------------------------------|
B|---------------------------------------------------------------------------|
G|----------7----------------------------------------------------------------|
D|-7-9-10-7----9-10-9------10-9-10------7------7-----------------------------|
A|----------------------10-----------8-----10--------------------------------|
D|---------------------------------------------------------------------------|

Guitar 2
e|---------------------------------------------------------------------------|
B|---------------------------------------------------------------------------|
G|---------------------------------------------------------------------------|
D|---------------------------------------------------------------------------|
A|---------------------------------------------------------------------------|
D|-777777777-55555555555--33333333-------------------------------------------|

9:35 – 9:44
Guitar 1					2x
e|---------------------------------------------------------------------------|
B|---------------------------------------------------------------------------|
G|---------------------------------------------------------------------------|
D|---------------------------------------------------------------------------|
A|-2--------3---------5---------7--------------------------------------------|
D|-222222222333333333355555555557--------------------------------------------|

Guitar 2 Not too sure about this			2x
e|---------------------------------------------------------------------------|
B|---------------------------------------------------------------------------|
G|----------------------------------------------------3p2p0h2p0--------------|
D|---------------------------------------------------------------3p0---------|
A|---------------------------------------------------------------------------|
D|---------------------------------------------------------------------------|



9:45 – 9:54
Guitar 1
e|---------------------------------------------------------------------------|
B|---------------------------------------------------------------------------|
G|----------7----------------------------------------------------------------|
D|-7-9-10-7----9-10-9-------10-9-10-----7-----7------------------------------|
A|---------------------10------------8----10---------------------------------|
D|---------------------------------------------------------------------------|

Guitar 2
e|---------------------------------------------------------------------------|
B|---------------------------------------------------------------------------|
G|---------------------------------------------------------------------------|
D|---------------------------------------------------------------------------|
A|---------------------------------------------------------------------------|
D|---777777777-555555555-3333333333------------------------------------------|

9:55 – 10:02
Guitar 1					2x
e|---------------------------------------------------------------------------|
B|---------------------------------------------------------------------------|
G|---------------------------------------------------------------------------|
D|---------------------------------------------------------------------------|
A|-2--------3---------5---------7--------------------------------------------|
D|-222222222333333333355555555557--------------------------------------------|

Guitar 2 Not too sure about this again		2x
e|---------------------------------------------------------------------------|
B|---------------------------------------------------------------------------|
G|----------------------------------------------------3p2p0h2p0--------------|
D|--------------------------------------------------------------3p0----------|
A|---------------------------------------------------------------------------|
D|---------------------------------------------------------------------------|

10:03 – 10:21
Guitar 1					4x
e|---------------------------------------------------------------------------|
B|---------------------------------------------------------------------------|
G|---------------------------------------------------------------------------|
D|-----------------------------------8-------9-------------------------------|
A|-----------------------------------8-------9-------------------------------|
D|--888-777-555-777-888-777-555-777--8-88888-9-------------------------------|

10:21 – 10:31
Guitar 1					2x
e|---------------------------------------------------------------------------|
B|---------------------------------------------------------------------------|
G|---------------------------------------------------------------------------|
D|---------------------------------------------------------------------------|
A|---------------------------------------------------------------------------|
D|-55555-10101010-88888-7777-55555-10101010-7777-3333------------------------|

Guitar 2 					2x
e|---------------------------------------------------------------------------|
B|---------------------------------------------------------------------------|
G|---------------------------------------------------------------------------|
D|---------------------------------------------------------------------------|
A|--10101010101010101010101010101010101010101010-----------------------------|
D|---------------------------------------------------------------------------|

10: 31 – 10:50
Guitar 1					4x
e|---------------------------------------------------------------------------|
B|---------------------------------------------------------------------------|
G|---------------------------------------------------------------------------|
D|-----------------------------------8-------9-------------------------------|
A|-----------------------------------8-------9-------------------------------|
D|--888-777-555-777-888-777-555-777--8-88888-9-------------------------------|

10:50 – 11:00
Guitar 1					2x
e|---------------------------------------------------------------------------|
B|---------------------------------------------------------------------------|
G|---------------------------------------------------------------------------|
D|---------------------------------------------------------------------------|
A|---------------------------------------------------------------------------|
D|-55555-10101010-88888-7777-55555-10101010-7777-3333------------------------|

Guitar 2 					2x
e|---------------------------------------------------------------------------|
B|---------------------------------------------------------------------------|
G|---------------------------------------------------------------------------|
D|---------------------------------------------------------------------------|
A|--10101010101010101010101010101010101010101010-----------------------------|
D|---------------------------------------------------------------------------|

11:00 – 11:18
Guitar 1(Tremolo Picking) Not Sure		4x
e|---------------------------------------------------------------------------|
B|---------------------------------------------------------------------------|
G|---------------------------------------------------------------------------|
D|-5-7-8-7---3-5-6-5---0-2-3-2-3-2-3-0---------------------------------------|
A|---------------------------------------------------------------------------|
D|---------------------------------------------------------------------------|

Guitar 2					4x
e|---------------------------------------------------------------------------|
B|---------------------------------------------------------------------------|
G|---------------------------------------------------------------------------|
D|---------------------------------------------------------------------------|
A|--88888888888--77777777777--5555555555-------------------------------------|
D|---------------------------------------------------------------------------|

End Chords
e|---------------------------------------------------------------------------|
B|---------------------------------------------------------------------------|
G|---------------------------------------------------------------------------|
D|-8---00--------------------------------------------------------------------|
A|-8---00--------------------------------------------------------------------|
D|-8---00--------------------------------------------------------------------|

Title: Cries Of The Past
Artist: Underoath
Album: Cries Of The Past

Tabbed By: Edward Pangestu (DarkStar11589@msn.com)

Tuning: Dropped D (D A D G B E)

Clean Intro
E|-------------------------------------------------------------------||
B|-------------------------------------------------------------------||
G|-------------------------------------------------------------------||
D|----9-9----9-9----9-9----9-9-----5-5----5-5----5-5----5-5----------||
A|-----7------7------7------7-------3------3------3------3-----------||
D|-777----777----777----777-----333----333----333----333-------------|| x4

(Distortion) (Twice with slide, Once without, Last time with)
E|--------------------------------------------------------------------||
B|--------------------------------------------------------------------||
G|--------------------------------------------------------------------||
D|-77---1010---33---/\\/----------------------------------------------||
A|-77---1010---33---/\\/----------------------------------------------||
D|-77---1010---33---/\\/----------------------------------------------|| x4



E|-------------------------------------------------------------------||
B|-------------------------------------------------------------------||
G|--------------------------*FILL PART*----779910109977--------------||
D|-777777---333333---777777------------7799--------------------------||
A|-777777---333333---777777------------------------------------------||
D|-777777---333333---777777------------------------------------------|| x4


E|-------------------------------||
B|-------------------------------||
G|-------------------------------||
D|-------------------------------||
A|-----------8h10-6--------------||
D|-000-000---8h10-6--------------|| x8
   ... ...

E|--------------------------------------------------------------------||
B|--------------------------------------------------------------------||
G|--------------------------------------------------------------------||
D|--------------------------------------------------------101010888777||
A|-333-333-333-333-333-333-333-333-777-777-777-777-777-777------------||
D|--------------------------------------------------------------------||x2


E|-------------------------------------------------------------------||
B|-------------------------------------------------------------------||
G|-------------------------------------------------------------------||
D|----------4444555577775555-----------------------------------------||
A|-3333(x8)------------------77777777--------77777777----------------||
D|-----------------------------------55555555--------55555555--------|| x2

E|--------------------------------------------------------------------||
B|--------------------------------------------------------------------||
G|--------------------------------------------------------------------||
D|--------------------------------------------------------101010888777||
A|-333-333-333-333-333-333-333-333-777-777-777-777-777-777------------||
D|--------------------------------------------------------------------||x2

E|-------------------------------------------------------------------||
B|-------------------------------------------------------------------||
G|-------------------------------------------------------------------||
D|-------------------------------------------------------------------||
A|-0-0-0-0-8h0-0-0-0-0-7h0--0-0-0-0-5h0--0-0-0-0-0-0-8h10h8h0--------||
D|-0-0-0-0-----0-0-0-0------0-0-0-0------0-0-0-0-0-0-----------------|| x2
   . . . .     . . . .      . . . .      . . . . . .
E|-------------------------------------------------------------------||
B|-------------------------------------------------------------------||
G|-------------------------------------------------------------------||
D|-------------------------------------------------------------------||
A|00000000-8h0-0000000-7h0--0000000-5h0--00000000000-8h10h8h0--------||
D|00000000-----0000000------0000000------00000000000-----------------|| x2
  ........     .......      .......      ...........

E|-------------------------------------------------------------------||
B|-------------------------------------------------------------------||
G|-------------------------------------------------------------------||
D|-8-8-8-8-8-8-7-7-7-7-7-7-8-8-8-8-8-8-0-0-0-7--0-0-0-7-/8-----------||
A|-8-8-8-8-8-8-7-7-7-7-7-7-8-8-8-8-8-8-0-0-0-7--0-0-0-7-/8-----------||
D|-8-8-8-8-8-8-7-7-7-7-7-7-8-8-8-8-8-8-0-0-0-7--0-0-0-7-/8-----------|| x2


E|-------------------------------------------------------------------||
B|-------------------------------------------------------------------||
G|-------------------------------------------------------------------||
D|-444555777555-444555777555-00022244422244422244400-----------------||
A|-------------------------------------------------------------------||
D|-------------------------------------------------------------------|| x4


E|-------------------------------------------------------------------||
B|-------------------------------------------------------------------||
G|-------------------------------------------------------------------||
D|00000000777777770000000088888888-////------------------------------||
A|-------------------------------------------------------------------||
D|-------------------------------------------------------------------||


(On 4th time dont play tremelo part)
E|-------------------------------------------------------------------||
B|-------------------------------------------------------------------||
G|-------------------------------------------------------------------||
D|-8-8-8~-7-8-7--5-5-5~-3-5-3-0--000000007777777788887777777700000000||
A|-8-8-8~-7-8-7--5-5-5~-3-5-3-0--------------------------------------||
D|-8-8-8~-7-8-7--5-5-5~-3-5-3-0--------------------------------------|| x4


E|-------------------------------------------------------------------||
B|-------------------------------------------------------------------||
G|-------------------------------------------------------------------||
D|-0-0--0-0-0-0--0-0-7h8h7-5----0-0--0-0-0-0--0-0-7h8h7-4------------||
A|-0-0--0-0-0-0--0-0-7h8h7-5----0-0--0-0-0-0--0-0-7h8h7-4------------||
D|-0-0--0-0-0-0--0-0-7h8h7-5----0-0--0-0-0-0--0-0-7h8h7-4------------|| x4


E|-------------------------------------------------------------------||
B|-------------------------------------------------------------------||
G|-------------------------------------------------------------------||
D|-------------------------------------------------------------------||
A|-------------------------------------------------------------------||
D|888877778888555500000000-------------------------------------------||

(CLEAN)
E|----------------------||
B|----------------------||
G|----------------------||
D|----------5h0-2h0-3h0-||
A|----------------------||
D|0-0-0-0000------------||x4

(Distortion)
E|-------------------------------------------------------------------||
B|-------------------------------------------------------------------||
G|-------------------------------------------------------------------||
D|----------5h0-2h0-3h0------------8h0-5h0-6h0-----------------------||
A|0-0-0-0000------------0-0-0-0000-----------------------------------||
D|0-0-0-0000------------0-0-0-0000-----------------------------------||
  . . . ....            . . . ....

E|-------------------------------------------------------------------||
B|-------------------------------------------------------------------||
G|-------------------------------------------------------------------||
D|777777775555555533333333000000000000-------------------------------||
A|-------------------------------------------------------------------||
D|-------------------------------------------------------------------|| x2


E|-------------------------------------------------------------------||
B|-------------------------------------------------------------------||
G|-------------------------------------------------------------------||
D|55555555333333332222222200000000222222227555555--------------------||
A|-------------------------------------------------------------------||
D|-------------------------------------------------------------------||

UNTIL END
E|-------------------------------------------------------------------||
B|-------------------------------------------------------------------||
G|-------------------------------------------------------------------||
D|777777775555555533333333000000000000-------------------------------||
A|-------------------------------------------------------------------||
D|-------------------------------------------------------------------||
Добавлено: 05.11.2013
Другие материалы по этой песне:
  • Аккорды и текст

Страница создана 26.04.2012
http://primanota.ru/underoath/cries-of-the-past-chords.htm
Привет, Гость.
Предлагаем пройти революционный курс по гитаре.
Подарок от PrimaNota.Ru, забирай!