PrimaNota.ru - самый крупный в мире бесплатный архив песенных текстов, аккордов, табулатур и нот


Underoath - A Boy Brushed Red Living In Black White - таба, видео

Регистрация Запомнить меня
Войти через:  Facebook Google Twitter Vk Yandex Mail.ru

Underoath - A Boy Brushed Red Living In Black White - таба, видео

Печатать
Просмотров: 64
Band:Underoath
 
Song:A Boy Brushed Red Living In Black & White

Album:They're Only Chasing Saftey

Intro
e|---------------------------------------------------------------------| 
b|---------------------------------------------------------------------| 
G|---------------------------------------------------------------------| 
D|---------------------------------------------------------------------| 
A|-444444444444444-00000000000000000-2222222222222222------------------| 
D|----------------------------------------------------4444444444444444-| 
pm ............... ................. ................ ................
e|------------------------------------------------ ---------------------| 
b|------------------------------------------------ ---------------------| 
G|------------------------------------------------ ---------------------| 
D|-6666666666666666-9999999999999999-4444444444444 444------------------| 
A|-4444444444444444-0000000000000000-2222222222222 222-4444444444444444-| 
D|------------------------------------------------ ----4444444444444444-| 
pm ................ ................ ................  ................
Then
e|------------------------------------------------ --------------------| 
b|------------------------------------------------ --------------------| 
G|-6666-66666-6666-----------------4444-44444-4444 --------------------| 
D|-6666-66666-6666-7777-77777-7777-4444-44444-4444 -4444-44444-4444----| 
A|-4444-44444-4444-7777-77777-7777-2222-22222-2222 -4444-44444-4444----| 
D|-----------------7777-77777-7777---------------- -4444-44444-4444----| 

Verse (Guitar 1)
e|------------------------------------------------------------------------| 
b|-----------------------------------------------222-----222--------------| 
g|-----666-----666----------666-----666----------------------2222---------| 
d|-----------------6666-----------------6666------------------------------| 
a|-444-----444----------000-----000----------222-----222------------------| 
d|------------------------------------------------------------------------| 
   ...     ...          ...     ...          ...     ...
e|------------------------------|
b|-----222-----222--------------|
g|-----------------2222---------|
d|------------------------------|
a|------------------------------|
d|--222----222------------------|
    ...    ...
This Part x2
e|-0-0-00000-0-00000000-0-0-00000-0-00000000--------------------------| 
b|-5-4-44444/5-77777777-5-4-44444/5/99999999--------------------------| 
G|--------------------------------------------------------------------| 
D|--------------------------------------------------------------------| 
A|--------------------------------------------------------------------| 
D|--------------------------------------------------------------------| 
This Part x2
This is where we both go wrong
e|--------------------------------------------------------------------| 
b|--------------------------------------------------------------------| 
G|-6666-66666-6666-----------------4444-44444-4444--------------------| 
D|-6666-66666-6666-7777-77777-7777-4444-44444-4444-4444-44444-4444----| 
A|-4444-44444-4444-7777-77777-7777-2222-22222-2222-4444-44444-4444----| 
D|-----------------7777-77777-7777-----------------4444-44444-4444----| 

So tie me up...(something i dont understand)
e|--------------------------------------------------------------------| 
b|--------------------------------------------------------------------| 
G|-6666-66666-6666-----------------4444-44444-4444--------------------| 
D|-6666-66666-6666-7777-77777-7777-4444-44444-4444-4444-44444-4444----| 
A|-4444-44444-4444-7777-77777-7777-2222-22222-2222-4444-44444-4444----| 
D|-----------------7777-77777-7777-----------------4444-44444-4444----| 
Pre chorus (x2)
In this moment when we both ignore the truth...
e|-0--0>------0-0000000000000000000-000-00000-------------------------| 
b|-4/12>------5-5555555555555555555-444/55555-------------------------| 
G|--------------------------------------------------------------------| 
D|--------------------------------------------------------------------| 
A|--------------------------------------------------------------------| 
D|--------------------------------------------------------------------| 
Chorus
e|--------------------------------------------------------------------| 
b|--------------------------------------------------------------------| 
G|-6-6-666------------------------------------------------------------| 
D|-6-6-666-7-7-777-4-4-444-7-7-777------------------------------------| 
A|-4-4-444-7-7-777-4-4-444-7-7-777------------------------------------| 
D|---------7-7-777-4-4-444-7-7-777------------------------------------| 

e|--------------------------------------------------------------------| 
b|--------------------------------------------------------------------| 
G|-6-6-666------------------------------------------------------------| 
D|-6-6-666-7-7-777-4-4-444-7---777------------------------------------| 
A|-4-4-444-7-7-777-4-4-444-7---777------------------------------------| 
D|---------7-7-777-4-4-444-7---777------------------------------------| 

e|--------------------------------------------------------------------| 
b|--------------------------------------------------------------------| 
G|-6-6-666------------------------------------------------------------| 
D|-6-6-666-7-7-777-4-4-444-7-7-777------------------------------------| 
A|-4-4-444-7-7-777-4-4-444-7-7-777------------------------------------| 
D|---------7-7-777-4-4-444-7-7-777------------------------------------| 

e|--------------------------------------------------------------------| 
b|--------------------------------------------------------------------| 
G|-6-6-666------------------------------------------------------------| 
D|-6-6-666-7-7-777-4-4-444-7-7-777------------------------------------| 
A|-4-4-444-7-7-777-4-4-444-7-7-777------------------------------------| 
D|---------7-7-777-4-4-444-7-7-777------------------------------------| 
Verse 2
Well Look who's dying now...
e|---------------------------------------------------------------------| 
b|---------------------------------------------------------------------| 
G|----------------------------------------------------6666666666666666-| 
D|------------------9999999999999999-4444444444444444-................-| 
A|-4444444444444444-................-................------------------| 
D|---------------------------------------------------------------------| 
   ................
Other part (x2)
It doesn't matter what you say...
e|-0-0-00000-0-00000000-0-0-00000-0-00000000--------------------------| 
b|-5-4-44444/5-77777777-5-4-44444/5/99999999--------------------------| 
G|--------------------------------------------------------------------| 
D|--------------------------------------------------------------------| 
A|--------------------------------------------------------------------| 
D|--------------------------------------------------------------------| 
Pre chorus (x2)
e|---0>----0-00000000000000000000-000-0-------------------------------| 
b|-/12>----5-55555555555555555555-444/5-------------------------------| 
G|--------------------------------------------------------------------| 
D|--------------------------------------------------------------------| 
A|--------------------------------------------------------------------| 
D|--------------------------------------------------------------------| 
Chorus 2
e|--------------------------------------------------------------------| 
b|--------------------------------------------------------------------| 
G|-6-6-666------------------------------------------------------------| 
D|-6-6-666-7-7-777-4-4-444-7-7-777------------------------------------| 
A|-4-4-444-7-7-777-4-4-444-7-7-777------------------------------------| 
D|---------7-7-777-4-4-444-7-7-777------------------------------------| 

e|--------------------------------------------------------------------| 
b|--------------------------------------------------------------------| 
G|-6-6-666------------------------------------------------------------| 
D|-6-6-666-7-7-777-4-4-444-7---777------------------------------------| 
A|-4-4-444-7-7-777-4-4-444-7---777------------------------------------| 
D|---------7-7-777-4-4-444-7---777------------------------------------| 

e|--------------------------------------------------------------------| 
b|--------------------------------------------------------------------| 
G|-6-6-666------------------------------------------------------------| 
D|-6-6-666-7-7-777-4-4-444-7-7-777------------------------------------| 
A|-4-4-444-7-7-777-4-4-444-7-7-777------------------------------------| 
D|---------7-7-777-4-4-444-7-7-777------------------------------------| 

e|--------------------------------------------------------------------| 
b|--------------------------------------------------------------------| 
G|-6-6-666------------------------------------------------------------| 
D|-6-6-666-7-7-777-4-4-444-7-7-777------------------------------------| 
A|-4-4-444-7-7-777-4-4-444-7-7-777------------------------------------| 
D|---------7-7-777-4-4-444-7-7-777------------------------------------| 
Bridge part thingy 
e|-0000-0-------------------------------------------------------------| 
b|-4444/5-------------------------------------------------------------| 
G|--------------------------------------------------------------------| 
D|--------------------------------------------------------------------| 
A|--------------------------------------------------------------------| 
D|--------------------------------------------------------------------| 
Then you do this little thingy for a couple times. 
i dont know if its all right
e|-------14---12------------------------------------------------------| 
b|----12---------12---------------------------------------------------| 
G|-13------13---------------------------------------------------------| 
D|--------------------------------------------------------------------| 
A|--------------------------------------------------------------------| 
D|--------------------------------------------------------------------| 
Final Chorus
e|--------------------------------------------------------------------| 
b|--------------------------------------------------------------------| 
G|-6-6-666------------------------------------------------------------| 
D|-6-6-666-7-7-777-4-4-444-7-7-777------------------------------------| 
A|-4-4-444-7-7-777-4-4-444-7-7-777------------------------------------| 
D|---------7-7-777-4-4-444-7-7-777------------------------------------| 

e|--------------------------------------------------------------------| 
b|--------------------------------------------------------------------| 
G|-6-6-666------------------------------------------------------------| 
D|-6-6-666-7-7-777-4-4-444-7---777------------------------------------| 
A|-4-4-444-7-7-777-4-4-444-7---777------------------------------------| 
D|---------7-7-777-4-4-444-7---777------------------------------------| 

e|--------------------------------------------------------------------| 
b|--------------------------------------------------------------------| 
G|-6-6-666------------------------------------------------------------| 
D|-6-6-666-7-7-777-4-4-444-7-7-777------------------------------------| 
A|-4-4-444-7-7-777-4-4-444-7-7-777------------------------------------| 
D|---------7-7-777-4-4-444-7-7-777------------------------------------| 

e|--------------------------------------------------------------------| 
b|--------------------------------------------------------------------| 
G|-6-6-666------------------------------------------------------------| 
D|-6-6-666-7-7-777-4-4-444-7-7-777------------------------------------| 
A|-4-4-444-7-7-777-4-4-444-7-7-777------------------------------------| 
D|---------7-7-777-4-4-444-7-7-777------------------------------------| 
THen you do the part where they play a little harder but its still the chorus
Then end with
e|--------------------------------------------------------------------| 
b|--------------------------------------------------------------------| 
G|-666-6-6------------------------------------------------------------| 
D|-666-6-6------------------------------------------------------------| 
A|-444-4-4------------------------------------------------------------| 
D|--------------------------------------------------------------------| 


thank you PLZ comment
Добавлено: 27.10.2013
Другие материалы по этой песне:
  • Аккорды и текст

Страница создана 27.10.2013
http://primanota.ru/underoath/a-boy-brushed-red-living-in-black-white-chords.htm
Привет, Гость.
Предлагаем пройти революционный курс по гитаре.
Подарок от PrimaNota.Ru, забирай!