PrimaNota.ru - самый крупный в мире бесплатный архив песенных текстов, аккордов, табулатур и нот


Ulver - Hiertets Vee - аккорды и текст, таба, видео

Регистрация Запомнить меня
Войти через:  Facebook Google Twitter Vk Yandex Mail.ru

Ulver - Hiertets Vee - аккорды и текст, таба, видео

Печатать
Просмотров: 172
Уроки эстрадного вокала в Санкт-Петербурге
Hiertets Vee
Ulver
		   ULVER "HIERTETS VEE"
From the LP "Kveldssanger"
Tabbed by Board (Anders Pedersen): mc_nyregrus@hotmail.com

Riff A:
|------------------------------------------------------|
|------------------------------------------------------|
|------0--------0--------0--------0--------0--------0--|
|------------------------------------------------------|
|---2--------4--------5--------2--------4--------5-----|
|0--------2--------3--------0--------2--------3--------|

|------------------------------------------------------|
|---------------0--------0-----------------0--------0--|
|------5--------------------------5--------------------|
|------------------------------------------------------|
|---7--------5--------3--------7--------5--------3-----|
|5--------3--------1--------5--------3--------1--------|
					Play a total of 2X

Riff B:
|------------------------------------| (Guitar one)
|------------------------------------|
|------------------------------------|
|7-5-3-2-3-2-3-2-0-7-5-3-2-3-2-3-2-0-|
|------------------------------------|
|------------------------------------|
			Play a total of 3X
						Play Riff B & Riff B together
Riff B:							(Guitar 1 & 2)
|------------------------------------| (Guitar two)
|----3-----3-----3-----3-----3-----3-|
|--2-----2-----2-----2-----2-----2---| I'm not sure this is what being played.
|0-----2-----3-----0-----2-----3-----|
|------------------------------------|
|------------------------------------|
			Play a total of 3X


Play the last half of riff A once.
Play Riff A a total of 2X
Play Riff B + B a total of 6X

RIff C:

|----------------------------------------------------------------------|
|----3----3-----3-----3----3-----3-----5-----5-----5-----5-----5-----5-|
|--3----3-----3-----3----3-----3-----5-----5-----5-----5-----5-----5---|
|5----------------5----------------7-----------------7-----------------|
|-----5-----6----------5-----6-----------7-----8-----------7-----8-----|
|----------------------------------------------------------------------|
							Play a total of 4X

Play Riff A a total of 2X
Play Riff B + B a total of 6X
Play the last half of Riff A once
Play Riff A a total of 2X

Fade     
Добавлено: 20.08.2013
Другие материалы по этой песне:

Страница создана 17.03.2012
http://primanota.ru/ulver/hiertets-vee-chords.htm
Привет, Гость.
Предлагаем пройти революционный курс по гитаре.
Подарок от PrimaNota.Ru, забирай!