PrimaNota.ru - самый крупный в мире бесплатный архив песенных текстов, аккордов, табулатур и нот


Ulli Boegershausen - Hit The Road Jack - таба, видео

Регистрация Запомнить меня
Войти через:  Facebook Google Twitter Vk Yandex Mail.ru

Ulli Boegershausen - Hit The Road Jack - таба, видео

Печатать
Просмотров: 383
                        Hit The Road, Jack                             


                                                         Ulli Boegershausen
Fingerstyle Guitar


Note: It seems like he always mutes the bass a littlebit 
(refrain), but i think you can ignore that.

This was a fucking hard piece of work for me and still 
its not perfect, but good enough to share it with you 
guys! If you have a suggestion of a fingerstyle vid thats 
not tabbed out , then let me know and 
maybe ill do it :)
                                
                                                     ^              
     S                             S      Q    S E.  S S S S E  E   
E||--0-------------------------------|-----------------------------|
B||--------------------------------1-|--1g3----------1-1-3-1-3--1--|
G||----------------------------------|---------2-----2-------------|
D||----------------------------------|-----------------------------|
A||----------------------------------|----0------------------------|
E||----------------------------------|-----------3---1-------0-----|


  ^     ^      ^      ^                         ^                   
  E  E  E  E   E  E   E   S S      Q    S E.    S S S S S S T  T S  
--0--0--5--5S--8--8-------0---|------------------------------------|
--1-----5------8-----10~----1-|--1g3------------1-1-3-1-3-1--------|
--2-----0------7------9~------|---------2-----0g2-----------2p-0-2-|
------------------------------|------------------------------------|
--0-----3------8--------------|----0-------------------------------|
----------------------0-------|-----------3-----1-------0----------|


                |-3-| |-3-| |-3-| |-3-|  
  E.  S  E.  S  S S S S S S S S S S S S  
----------------------------------------|
----------------------------------------|
----------------------2-----------1-----|
------------------2-------2---2-------2-|
--0-------------------------------------|
------0h-3---0h-1---1---1---0---0---0---|


                                    0:22  
                  |-3-| |-3-|             
  E  S S  E  S S  S S S S S S S S S S     
----------------------------------0------|
------------------------------------1----|
------------------------2-----1----------|
-----x-------x------2-------2-2----------|
--0--x-------x---------------------------|
-----x-0h-3--x-0h-1---1---1---0----------|


                Bass is muted!               
                PM               PM   PM PM  
    E  E  E  E  S              S S  S E  E   
--------------------------------------------|
--1g3-----------1--------------1-3--1-3--1--|
----------2--L------------------------------|
-------x-----x------------------------------|
----0--x-----x------------------------------|
-------x--3--x--1----------------1----0--0--|


                        not sure about this - ulli is too fast :D          
                        |---------------------3---------------------| |-3-|
  E  E    E  E    E  E  S                                         S S S S S
--0--0----5--5----8--8--5-------------------------------------------0------
--1--1----5--5----8--8-----------------------------------------------------
--2--2----0--0----7--7--------------------------------------------5---8-5-7
---------------------------------------------------------------------------
--0--0--0g3--3--0g8--8-----------------------------------------------------
------------------------0--------------------------------------------------


  E  S S E  E  S S S S S S T  T S    E  S S E  E  S S S S  E  S S  
--0--L----------------------------|---------------5-5---8\-L--0---|
---------------1-1-3-1-3-1--------|---------------5-5---8\-L----1-|
-------2-------------------2p-0-2-|---------------------7\-L------|
----------------------------------|-------2-----------------------|
--0--0-L--------------------------|--0--0-L-------3-L-------------|
---------3--3--1-L-1-L-0-L-0----L-|---------3--3-----------0------|


                                                       |-3-| |-3-|  
    E  E  E  E  S S S S E  E     E  E    E  E    E  E  S S S S S S  
------------------------------|--0--0----5--5----8--8--5---0-------|
--1g3-----------1-1-3-1-3--1--|--1--1----5--5----8--8--------------|
----------2--L----------------|--2--2----0--0----7--7----5---8-5-7-|
-------x-----x----------------|------------------------------------|
----0--x-----x----------------|--0--0--0g3--3--0g8--8--------------|
-------x--3--x--1-L-1-L-0--0--|------------------------0-----------|


                                                             00:47     
  E  S S E  E  S S S S S S T  T S    E  S S E  E  E  E  S S  S     S   
--0--L----------------------------|-----------------------3s-5-----3s-|
---------------1-1-3-1-3-1--------|-----------------------------------|
-------2-------------------2p-0-2-|-----------------------------------|
----------------------------------|-------2---------------------------|
--0--0-L--------------------------|--0--0-L---------------------------|
---------3--3--1-L-1-L-0-L-0----L-|---------3--3--1--1--0-------------|


  S S S S S S S S S S E  E  S S    E  E  E  S S S S S S E  E   
--5-0--------------------0--L---|--0--------------------------|
------4-3-1---1---3---4-------3-|-----3--1------1-------------|
------------2---2---2-----------|-----------2-0---2-0---------|
--------------------------------|---------------------2----L--|
--0-----L-----------------------|--0--0-----------------------|
----------3-L-3-L-1-L-1--0--0-L-|--------3--3-L-1-L-1-L-0--0--|


  E  S S S S S S E  S S  E  S S    S S S S S S S S E  E  E  S S  
-----------0---L-5----8\----L---|--0---0---0----------------0---|
-----1---3-------5----8\----L-3-|----3---3--------------------1-|
--2--2-2-0-----0-L----7\----L---|------------2---2--------------|
-----------------3--x-----------|-------------------------------|
--0--0-L------------x-----------|--0-L-0-L----------------------|
---------3-L-3-L----x----0--0-L-|----------3-L-3-L-1--1--0------|


                PM   PM   PM PM                                       
                                                         |-3-| |-3-|  
    E  E  E  E  S  S S  S E  E     E  E    E  E    E  E  S S S S S S  
--------------------------------|--0--0----5--5----8--8--5---0-------|
--1g3-----------1--1-3--1-3--1--|--1--1----5--5----8--8--------------|
----------2--L------------------|--2--2----0--0----7--7----5---8-5-7-|
-------x-----x------------------|------------------------------------|
----0--x-----x------------------|--0--0--0g3--3--0g8--8--------------|
-------x--3--x--1----1----0--0--|------------------------0-----------|


  E  S S E  E  S S S S S S T  T S    E  S S E  E  E  E  E  E   
--0--L----------------------------|---------------------------|
---------------1-1-3-1-3-1--------|---------------------------|
-------2-------------------2p-0-2-|---------------------------|
----------------------------------|-------2-------------------|
--0--0-L--------------------------|--0--0-L-------------------|
---------3--3--1-L-1-L-0---0------|---------3--3--1--1--0--0--|


      |--3--|          |--3--|                 
  S S T  T  T S E  S S T  T  T S E  S S S T T  
--------------------------------------0-------|
------0h-1p-0---0------0h-1p-0---0--L-------0-|
----2---------2------2---------2----------1-L-|
----------------------------------------------|
--0-L-0-------L-------------------------------|
----------------3--3-L-1-------L-1--0-L-0---L-|


      |--3--|                          
  S S T  T  T S E  S S S S S S S S E   
-------------------------0-L-0-L-0-L--|
------0h-1p-0---0------1-----0-L-0-L--|
----2---------2------2-2-----1---1-L--|
--------------------------------------|
--0-L-0-------L-----------------------|
----------------3--3-L-1-L-1-L-0-L-0--|


      |--3--|          |--3--|                 
  S S T  T  T S E  S S T  T  T S E  S S S T T  
--------------------------------------0-------|
------0h-1p-0---0------0h-1p-0---0--L-------0-|
----2---------2------2---------2----------1-L-|
----------------------------------------------|
--0-L-0-------L-------------------------------|
----------------3--3-L-1-------L-1--0-L-0---L-|


      |--3--|                                                           
  S S T  T  T S E  S S  S S S. T E  S S      E  E  E  E  S S S S E  E   
------------------------------------0---|------------------------------|
------0h-1p-0---0---------------------1-|--1g3-----------1-1-3-1-3--1--|
----2---------2-----------1-L--2-L------|----------2--L----------------|
---------------------0h-2------2-L------|-------x-----x----------------|
--0-L-0-------L------0h-2--------0------|----0--x-----x----------------|
----------------3--3-L------0-----------|-------x--3--x--1---1---0--0--|


                        |-3-| |-3-|                                     
  E  E    E  E    E  E  S S S S S S    E  S S E  E  S S S S S S T  T S  
--0--0----5--5----8--8--5---0-------|--0--L----------------------------|
--1--1----5--5----8--8--------------|---------------1-1-3-1-3-1--------|
--2--2----0--0----7--7----5---8-5-7-|-------2-------------------2p-0-2-|
------------------------------------|----------------------------------|
--0--0--0g3--3--0g8--8--------------|--0--0-L--------------------------|
------------------------0-----------|---------3--3--1-L-1-L-0-L-0----L-|


                              1:37                                      
                     PM PM                                              
                                   |-3-|         |-3-| |-3-| |-3-|      
  E  S S E  E  E  E  E  E     E    S S S S E.    S S S S S S S S S E    
---------------------------|-----------5-7-7br---7-5---5---------------|
---------------------------|-------5-8---------------8---8-5-8-5---5\--|
---------------------------|-------------------------------------7-----|
-------2-------------------|-------------------------------------------|
--0--0-L-------------------|--0----------------------------------------|
---------3--3--1--1--0--0--|-------------------------------------------|


      |-3-| |-3-| |-3-| |-3-| |-3-| |-3-| |-3-|  
  S S S S S S S S S S S S S S S S S S S S S S S  
----0-3-1-0---0---------------------------------|
------------3---3-1-3---------------------------|
----------------------2-0-----------------------|
--------------------------3-2-0-----------------|
--------------------------------3-2-0-3-2-0-2---|
--3-------------------L-----------------------1-|


       |--3-| |--3-| |--3-| |---3--|  |--3-| |--3-|  
  T S. S  S S S  S S S  S S E   E  E  S  S S S  S S  
----------------------------------------------------|
-------1p-0---1p-0---1p-0---1p--0------------1p-0---|
------------2------2------2--------2-------2------2-|
--------------------------------------0h-3----------|
----------------------------------------------------|
----1-----------------------1-----------------------|


     |-3-| |--3--|  |--3--|   |---3---|    
  E  S S S E  E  E  E  E  E   E   E   E    
---------------------------------10--12\--|
--0-----------------------9--12-----------|
--------------------7--9------------------|
--------------6--9------------------------|
---------5-7------------------------------|
--0--4-7----------------------------------|


                             |-3-| |-3-|  
  S. T S S S. T S S S. T S S S S S S S S  
-----0---L----5--------5-------8---L-----|
-----1---L----5--------5-------8---L-----|
-----2---L----5--------5-----------------|
-------x--------x--------x---------------|
--0----x-0-3----x-0------x-0-8---8-7-----|
-------x--------x---1----x-----------8-7-|


  S. T S S S. T S S S. T S S S. S. S  
-----0---L----5--------5-----8--8--8-|
-----1---L----5--------5-----8--8--8-|
-----2---L----5--------5-------------|
-------x--------x--------x-----------|
--0----x-0-3----x-0------x-0-8--7----|
-------x--------x---1----x---------8-|


                             |-3-| |-3-|  
  S. T S S S. T S S S. T S S S S S S S S  
-----0---L----5--------5-------8---L-----|
-----1---L----5--------5-------8---L-----|
-----2---L----5--------5-----------------|
-------x--------x--------x---------------|
--0----x-0-3----x-0------x-0-8---8-7-----|
-------x--------x---1----x-----------8-7-|


                                                      PM   PM   PM PM  
  S. T S S S. T S S S. T S S  E  S S      E  E  E  E  S  S S  S E  E   
-----0---L----5--------5---4\-L--0---|--------------------------------|
-----1---L----5--------5---3\-L----1-|--1g3-----------1--1-3--1-3--1--|
-----2---L----5--------5---4\-L------|----------2--L------------------|
-------x--------x--------x-----------|-------x-----x------------------|
--0----x-0-3----x-0------x-----------|----0--x-----x------------------|
-------x--------x---1----x----0------|-------x--3--x--1----1----0--0--|


                        |-3-| |-3-|                                     
  E  E    E  E    E  E  S S S S S S    E  S S E  E  S S S S S S T  T S  
--0--0----5--5----8--8--5---0-------|--0--L----------------------------|
--1--1----5--5----8--8--------------|---------------1-1-3-1-3-1--------|
--2--2----0--0----7--7----5---8-5-7-|-------2-------------------2p-0-2-|
------------------------------------|----------------------------------|
--0--0--0g3--3--0g8--8--------------|--0--0-L--------------------------|
------------------------0-----------|---------3--3--1-L-1-L-0-L-0----L-|


  E  S S E  E  S S S S  E  S S      E  E  E  E  S S S S E  E   
---------------5-5---8\-L--0---|------------------------------|
---------------5-5---8\-L----1-|--1g3-----------1-1-3-1-3--1--|
---------------------7\-L------|----------2--L----------------|
-------2-----------------------|-------x-----x----------------|
--0--0-L-------3-L-------------|----0--x-----x----------------|
---------3--3-----------0------|-------x--3--x--1-L-1-L-0--0--|


                        |-3-| |-3-|                                     
  E  E    E  E    E  E  S S S S S S    E  S S E  E  S S S S S S T  T S  
--0--0----5--5----8--8--5---0-------|--0--L----------------------------|
--1--1----5--5----8--8--------------|---------------1-1-3-1-3-1--------|
--2--2----0--0----7--7----5---8-5-7-|-------2-------------------2p-0-2-|
------------------------------------|----------------------------------|
--0--0--0g3--3--0g8--8--------------|--0--0-L--------------------------|
------------------------0-----------|---------3--3--1-L-1-L-0-L-0----L-|


                          00:47                                      
  E  S S E  E  E  E  S S  S     S     S S S S S S S S S S E  E  S S  
-----------------------3s-5-----3s-|--5-0--------------------0--L---|
-----------------------------------|------4-3-1---1---3---4-------3-|
-----------------------------------|------------2---2---2-----------|
-------2---------------------------|--------------------------------|
--0--0-L---------------------------|--0-----L-----------------------|
---------3--3--1--1--0-------------|----------3-L-3-L-1-L-1--0--0-L-|


  E  E  E  S S S S S S E  E     E  S S S S S S E  S S  E  S S  
--0--------------------------|-----------0---L-5----8\----L---|
-----3--1------1-------------|-----1---3-------5----8\----L-3-|
-----------2-0---2-0---------|--2--2-2-0-----0-L----7\----L---|
---------------------2----L--|-----------------3--x-----------|
--0--0-----------------------|--0--0-L------------x-----------|
--------3--3-L-1-L-1-L-0--0--|---------3-L-3-L----x----0--0-L-|


  S S S S S S S S E  E  E   S S      E  E  E  E  S S S S E  E   
--0---0---0----------8--8\--0---|------------------------------|
----3---3------------8--8\----1-|--1g3-----------1-1-3-1-3--1--|
------------2---2----7--7\------|----------2--L----------------|
--------------------------------|-------x-----x----------------|
--0-L-0-L-----------------------|----0--x-----x----------------|
----------3-L-3-L-1-----0-----L-|-------x--3--x--1-L-1-L-0--0--|


                        |-3-| |-3-|                                     
  E  E    E  E    E  E  S S S S S S    E  S S E  E  S S S S S S T  T S  
--0--0----5--5----8--8--5---0-------|--0--L----------------------------|
--1--1----5--5----8--8--------------|---------------1-1-3-1-3-1--------|
--2--2----0--0----7--7----5---8-5-7-|-------2-------------------2p-0-2-|
------------------------------------|----------------------------------|
--0--0--0g3--3--0g8--8--------------|--0--0-L--------------------------|
------------------------0-----------|---------3--3--1-L-1-L-0-L-0----L-|


  E  S S E  E  S S S S S S T  T S    E  S S E  E  S S S S S S T  T S  
----------------------------------|----------------------------------|
---------------1-1-3-1-3-1--------|---------------1-1-3-1-3-1--------|
---------------------------2p-0-2-|---------------------------2p-0-2-|
-------2--------------------------|-------2--------------------------|
--0--0-L--------------------------|--0--0-L--------------------------|
---------3--3--1-L-1-L-0-L-0----L-|---------3--3--1-L-1-L-0-L-0----L-|


  E  S S E  E  S S S S S S T  T S  
----------------------------------|
---------------1-1-3-1-3-1--------|
---------------------------2p-0-2-|
-------2--------------------------|
--0--0-L--------------------------|
---------3--3--1-L-1-L-0-L-0----L-|


     |--3-|  |--3-|  |--3-|  |--3-|  |--3-| |--3-|  |--3-|  
  E  S  S S  S S  S  S S  S  S S  S  S S  S S  S S  S  S S  
-----------------------0h-1p-0-----------------------------|
---------------0h-1h-3---------3p-1p-0---------------------|
----------0h-2-------------------------2p-0----------------|
-----0h-2-----------------------------------3p-2-----------|
--0----------------------------------------------3p-2p-0---|
---------------------------------------------------------3-|


       ^              
  Q    H.             
-------7------------||
-------5------------||
-------5------------||
-------4------------||
--0-----------------||
--------------------||




Duration Legend
---------------
W - whole
H - half
Q - quarter
E - 8th
S - 16th
T - 32nd
X - 64th
. - note dotted
|-n-|  - n-tuplets


Tablature Legend
----------------
L - tied note
x - dead note
g - grace note
(n) - ghost note
> - accentuded note
NH - natural harmonic
AH - artificial harmonic
TH - tapped harmonic
SH - semi harmonic
PH - pitch harmonic
h - hammer on
p - pull off
b - bend
br - bendRelease
pb - preBend
pbr - preBendRelease
brb - bendReleaseBend
\n/ - tremolo bar dip
\n - tremolo bar dive
-/n - tremolo bar Release up
/n\ - tremolo bar inverted dip
/n - tremolo bar return
-\n - tremolo bar Release down
S - shift slide
s - legato slide
/ -  slide into from below or out of upwards
\ -  slide into from above or out of downwards
~ - vibrato
W - wide vibrato
tr - trill
TP - tremolo picking
T - tapping
S - slap
P - pop
< - fade in
^ - brush up
v - brush down
Добавлено: 19.07.2013
Другие материалы по этой песне:

Страница создана 12.06.2013
http://primanota.ru/ulli-boegershausen/hit-the-road-jack-chords.htm
Привет, Гость.
Предлагаем пройти революционный курс по гитаре.
Подарок от PrimaNota.Ru, забирай!