PrimaNota.ru - самый крупный в мире бесплатный архив песенных текстов, аккордов, табулатур и нот


Ulli Boegershausen - Holy Night Silent Night - таба, видео

Регистрация Запомнить меня
Войти через:  Facebook Google Twitter Vk Yandex Mail.ru

Ulli Boegershausen - Holy Night Silent Night - таба, видео

Печатать
Просмотров: 446
Уроки эстрадного вокала в Санкт-Петербурге
SILENT NIGHT (HOLY NIGHT)



Arranged by Ulli Boegershausen
Transcribed by Luigi Popescu Viorel



Guitar tunning: C G D G B E
Capo on 2



Play the parts in this order:


1)Intro
2)2xVerse
3)Interlude
4)Verse




Intro/Interlude


|-----------------|-----------------|--------------------|
|-0-----0-1---0---|---------0-----0-|-1-3-0--------------|
|-----0-----2-----|-0-----------0---|---------0----------|
|---0-----------0-|-----------0-----|-------0------------|
|-0-----------0---|---4-5-2-0-------|-----0--------------|
|-----------------|-----------------|-----------2-4-6----|





|-----------------|-----------------|--------------------|
|-0-----0-1---0---|---------0-----3-|-1------------------|
|-----0-----2-----|-0-----------0---|---2-0---0----------|
|---0-----------0-|-------0---0-----|-------0------------|
|-0-----------0---|---4-5---0-------|-----0--------------|
|-----------------|-----------------|-----------2-4-6----|



Verse



|-------0---------|---------------0-|------------------|
|-3-------3---0---|---------3-------|-3---0------------|
|-----0-----------|-----0-2-----0---|-------------0----|
|---0-------0---0-|-2-4-------0-----|---0---0-2-4------|
|-0-----------0---|---------0-------|-----0------------|
|-----------------|-----------------|------------------|





|-^5-(5)-----5--2---|---------3-------|-3------------------|
|-^3-(3)-3----------|-----------------|-----3--------------|
|-^5-(5)-5----------|-----0-2-----0---|-------0------------|
|-----4----4------0-|-2-4-------0---0-|---0-----0----------|
|-------------------|---------0-------|-0---0-----4-2-4----|
|---------------0---|-----------------|--------------------|





|-----------------|---------------0-|--------------------|
|-5-------5---8---|-7---5---3-------|-3---0--------------|
|-----5---5-------|-------------0---|--------------------|
|---5---5---5---5-|---5---5---0-----|---0---0-2-4-5-7----|
|-5---------------|---------0-------|-----0--------------|
|-----------------|-----------------|--------------------|





|-------------------|-----------------0-|------------------|
|-5-------5---8-----|-7-----5---3-------|-3---0------------|
|-----5---5-------5-|-----5---------0---|-------------0----|
|---5---5---5---5---|---5-----5---0-----|---0---0-2-4------|
|-5-----------------|-----------0-------|-----0------------|
|-------------------|-------------------|------------------|





|-^5-(5)-----5s7-8---|-5---2---3-------|-----7--------------|
|-^3-(3)-3-----------|-------3---------|-------0------------|
|-^5-(5)-5-----------|-0---------------|--------------------|
|-----4----4---------|---0-------0-2-4-|-5-7----------------|
|--------------------|---------0-------|---------4----------|
|-^0-------------4-6-|-----0-----------|-----------9-7-9----|





|-3--------------|-----------------|----------|
|-----3-----^3---|-----------------|----------|
|---0-----4-^5---|-5---2---0-------|-0-2s4----|
|-------0------0-|---0---0---0-2-4-|----------|
|-0--------------|---------0-------|----------|
|-----------^0---|-----------------|----------|




***************************************************************************************
* Generated using Power Tab Editor by Brad Larsen - http://powertab.guitarnetwork.org *






Play the parts in this order:



1)Intro
2)2xVerse
3)Interlude
4)Verse



Don't forget to tune you guitar...
Just lower down you're A string 1 tone, to G, and lower down your Bass E by 2 tones, to C.



You are free to give this tab to anyone who asks you for it, because my purpose is not
to praise myself, but to help people to learn to play fingerstyle guitar.

I'm happy that I could to this tab for you and I hope it will help you.

To see the timing and the duration of the notes, follow thisnlink to Sungha's video,
that helped me to transcribe the song. Learn the song using my tab and Sungha's video.



Don't forget that using tabs is now the best way to learn to play guitar. Trying to
transcribe or even arrange the songs by yourself will help you to develop your ear and
automatically your playing.



If you want any tab of any song I uploaded on youtube
(http://www.youtube.com/users/joyoluigi), just send me an e-mail or a private youtube 
message and I will send it to you.
It's true that I don't have tabs for all the songs I play, because I learn mostly by ear 
or arranging my self and I don't always transcribe the songs...



Oh, as it's a Christmas song, I must remind you that this part of the year should remind
us about the great love of Jesus Christ who choosed come to this World to die in our
place.. for our salvation.. Don't you think that's such a big deal for us.. the humans? 
Well I really think that we should appreciate more this gift of life God has given to us.

Don't forget that: God came into this world for you, because He loved you... And He is
still loving and will always be loving you! He wants you to be happy!

“For God so loved the world that He gave His only begotten Son for that whoever belives
in Him, shall not perish but have everlasting life.” John 3:16.



God bless you.



Luigi Popescu Viorel
Добавлено: 19.10.2013
Другие материалы по этой песне:
  • Аккорды и текст

Страница создана 19.10.2013
http://primanota.ru/ulli-boegershausen/holy-night-silent-night-chords.htm
Привет, Гость.
Предлагаем пройти революционный курс по гитаре.
Подарок от PrimaNota.Ru, забирай!