PrimaNota.ru - самый крупный в мире бесплатный архив песенных текстов, аккордов, табулатур и нот


Ufo - Lights Out Live - бас-таба, видео

Регистрация Запомнить меня
Войти через:  Facebook Google Twitter Vk Yandex Mail.ru

Ufo - Lights Out Live - бас-таба, видео

Печатать
Просмотров: 47
-------------------------------------------------------------------------------
                             LIGHTS OUT - UFO
-------------------------------------------------------------------------------
Bass Tabbed by: David Etheridge
E-mail: david_l_etheridge@yahoo.com

This is the live version from "Strangers In The Night" album

The "." above a note mark the triplets that I play. I don't know if "." is a real notation mark,
I was just trying to shorten the page a bit. This is my first tab so it's probably not perfect, but
it should get you close.

Tuning: Standard

  Intro X8      Verse 1 X8    Fill between verses
G||---------|| ||---------|| ||--------|-------------|---------|---------||
D||---------|| ||---------|| ||--------|-------------|---------|---------||
A||---------|| ||---------|| ||.-.-.-.-|--.--.--.----|---------|---------||
E||2-202-020|| ||2-202-020|| ||0-0-0-0-|/12-12-12-12\|2-202-020|2-202-020||

  Verse 2 X8    Fill to chorus
G||---------|| ||--------|--------|---------|---------||
D||---------|| ||--------|--------|---------|---------||
A||---------|| ||.-.-.-.-|.-.-.-.-|---------|---------||
E||2-202-020|| ||0-0-0-0-|0-0-0-0-|2-202-020|2-202-020||
                                                                   
  Chorus  
G||--------|--------|--------|--------|--------|----------|--------|--------|--------|
D||--------|--------|--------|--------|--------|----------|--------|--------|--------|
A||.-.-.-.-|.-.-.-7-|.-.-.-.-|.-.-.-.-|.-.-.-.-|.-.-.-----|.-.-.-.-|.-.-.-.-|.-.-.-.-|
E||5-5-5-5-|5-5-5---|7-7-7-7-|7-7-7-5-|3-3-3-3-|3-3-3-567-|7-7-7-7-|7-7-7-7-|5-5-5-5-|

G|--------|--------|--------|--------|--------|---------|---------|---------|---------||
D|--------|--------|--------|--------|--------|---------|---------|---------|---------||
A|.-.-.-7-|.-.-.-.-|.-.-.-.-|.-.-.-.-|.-.-.-.-|---------|---------|---------|---------||
E|5-5-5---|7-7-7-7-|7-7-7-5-|3-3-3-3-|3-3-3-3-|2-202-020|2-202-020|2-202-020|2-202-020||  

  Verse 3 X8    Fill to chorus
G||---------|| ||--------|-------------|---------|---------||
D||---------|| ||--------|-------------|---------|---------||
A||---------|| ||.-.-.-.-|--.--.--.----|---------|---------||
E||2-202-020|| ||0-0-0-0-|/12-12-12-12\|2-202-020|2-202-020||

Chorus

  Solo X16       Solo continued
G||---------|| ||--------|-------|--------|-------|--------|-------|--------|----------||
D||---------|| ||--------|-------|--------|-------|--------|-------|--------|----------||
A||---------|| ||.-.-.-.-|.-.-.-9|.-.-.-.-|.-.-.--|.-.-.-.-|.-.-.-9|.-.-.-.-|.-.-.-.-.-||
E||2-202-020|| ||9-9-9-9-|9-9-9--|9-9-9-9-|9-9-9-7|9-9-9-9-|9-9-9--|9-9-9-9-|9-9-9-7-5-||

Chorus

  Verse 4 X8    Fill to chorus
G||---------|| ||--------|-------------|---------|---------||
D||---------|| ||--------|-------------|---------|---------||
A||---------|| ||.-.-.-.-|--.--.--.----|---------|---------||
E||2-202-020|| ||0-0-0-0-|/12-12-12-12\|2-202-020|2-202-020||

Chorus

  Outro X3          
G||--------|-------|--------|-------|--------|-------|--------|----------|
D||--------|-------|--------|-------|--------|-------|--------|----------|
A||.-.-.-.-|.-.-.-9|.-.-.-.-|.-.-.--|.-.-.-.-|.-.-.-9|.-.-.-.-|.-.-.-.-.-|
E||9-9-9-9-|9-9-9--|9-9-9-9-|9-9-9-7|9-9-9-9-|9-9-9--|9-9-9-9-|9-9-9-7-5-|

                               End 1 & 2    End 3
G|--------|-------|--------|| ||--------|| ||---------||
D|--------|-------|--------|| ||--------|| ||---------||
A|.-.-.-.-|.-.-.-7|.-.-.-.-|| ||.-.-.-.-|| ||.-.-.--9-||
E|5-5-5-5-|5-5-5--|7-7-7-7-|| ||7-7-7-7-|| ||7-7-7-7-9||


| .  triplet
| /  slide up
| \  slide down
| h  hammer-on
| p  pull-off
| ~  vibrato
| +  harmonic
| x  Mute note
===============================================================================
Добавлено: 15.11.2015
Другие материалы по этой песне:

Страница создана 19.05.2012
http://primanota.ru/ufo/lights-out-live-chords.htm
Привет, Гость.
Предлагаем пройти революционный курс по гитаре.
Подарок от PrimaNota.Ru, забирай!