PrimaNota.ru - самый крупный в мире бесплатный архив песенных текстов, аккордов, табулатур и нот


Udo - Secrets In Paradise - таба, видео

Регистрация Запомнить меня
Войти через:  Facebook Google Twitter Vk Yandex Mail.ru

Udo - Secrets In Paradise - таба, видео

Печатать
Просмотров: 229
Title: Secrets in paradise
Artist: UDO
Tempo = 133
Nylon Guitar

Legend
L - tied note


D |----------------------------|----------------------------|
A |-----3----------------------|--------3-----1-------------|
F |-----------3-----2--0-------|-----0-----0-----3--2-------|
C |-----------------------3----|--1--------------------3----|
G |----------------------------|----------------------------|
D |--3-----3-----3-------------|----------------------------|


----------------------------|---------------------------||
-----3----------------------|-----------3--1------------||
-----------3-----2--0-------|-----0--3--------3--2-----o||
-----------------------3----|--1--------------------3--o||
----------------------------|---------------------------||
--3-----3-----3-------------|---------------------------||


----------------------------|----||
-----------3L----------3----|----||
-----0--3-------------------|----||
--1-------------------------|----||
----------------------------|----||
----------------------------|----||
Добавлено: 01.12.2015
Другие материалы по этой песне:
  • Аккорды и текст

Страница создана 01.12.2015
http://primanota.ru/udo/secrets-in-paradise-chords.htm
Привет, Гость.
Предлагаем пройти революционный курс по гитаре.
Подарок от PrimaNota.Ru, забирай!