PrimaNota.ru - самый крупный в мире бесплатный архив песенных текстов, аккордов, табулатур и нот


Udo - Shout it Out - аккорды и текст, видео

Регистрация Запомнить меня
Войти через:  Facebook Google Twitter Vk Yandex Mail.ru

Udo - Shout it Out - аккорды и текст, видео

Печатать
Просмотров: 458
Авторы музыки: Stefan Kaufmann, Udo Dirkschneider
Авторы текста: Stefan Kaufmann, Udo Dirkschneider
Shout it Out
Udo
Tabbed By Joel Hagglund
E-Mail joel_hagglund@hotmail.com
www.accepttabs.cjb.net

Solo
E--------------------------------------------------------------------------
B-------------------------------------------------------------6--7b(9)r7---
G-----6------------------------------6-9-6-9b(11)--9-7-6---8-------------6-
D---7---7-7b(9)--7-6-9b(11)--9-----7---------------------------------------
A-9----------------------------9-------------------------------------------
E--------------------------------------------------------------------------


--------------------------------------------------------------------
----------------------------5----------------------4--6--7b(9)r7----
------------4b(6)r4-6b(7)-----7-6--4---4b(6)-4-------------------6--
--6b(7)r6-4--------------------------7---------4--------------------
--------------------------------------------------------------------
--------------------------------------------------------------------


---------------------------------------------------------------|
--------------------------5-------------------------------7----|
-----------4b(6)r4-6b(7)----7-6--4---4b(6)-4------------6------|
-6b(7)r6-4-------------------------7---------4-6-7----7--------|
---------------------------------------------------------------|
---------------------------------------------------------------|


Добавлено: 05.10.2013
Другие материалы по этой песне:
  • Аккорды и текст

Страница создана 02.04.2012
http://primanota.ru/udo/shout-it-out-chords.htm
Привет, Гость.
Предлагаем пройти революционный курс по гитаре.
Подарок от PrimaNota.Ru, забирай!