PrimaNota.ru - самый крупный в мире бесплатный архив песенных текстов, аккордов, табулатур и нот


U2 - Zoo Station - аккорды и текст, таба, бас-таба, видео

Регистрация Запомнить меня
Войти через:  Facebook Google Twitter Vk Yandex Mail.ru

U2 - Zoo Station - аккорды и текст, таба, бас-таба, видео

Печатать
Просмотров: 455
Zoo Station
U2
Use heavy distortion and make the slides heard.

Intro: (Repeat about 12 times)
[E---------------------------------------
B---------------------------------------
G---------------------------------------
D---------------------------------------
A-12/-----------------------------------
E-----3-5-------------------------------]
(The "/" means to slide all the way down the string)

Second Part of Intro & Also used in Chorus:
[E-----10---------10--------5--------5---
B---8----8-----8----8----3---3----3---3-
G-7----------7---------2--------2-------
D---------------------------------------
A---------------------------------------
E---------------------------------------]

Solo at end:
[E--------------------------------------------------------------------------
B--------------------------------------------------------------------------
G-----------------------9-9-9-9-9-9-9-9-9-11--9-9-9-9-9-9-9-9-9-11---------
D-11---9--7---11---9--7----------------------------------------------------
A--------------------------------------------------------------------------
E--------------------------------------------------------------------------]
Добавлено: 25.08.2013
Другие материалы по этой песне:

Страница создана 25.02.2012
http://primanota.ru/u2/zoo-station-chords.htm
Привет, Гость.
Предлагаем пройти революционный курс по гитаре.
Подарок от PrimaNota.Ru, забирай!