PrimaNota.ru - самый крупный в мире бесплатный архив песенных текстов, аккордов, табулатур и нот


U2 - Please - аккорды и текст, таба, бас-таба, видео

Регистрация Запомнить меня
Войти через:  Facebook Google Twitter Vk Yandex Mail.ru

U2 - Please - аккорды и текст, таба, бас-таба, видео

Печатать
Просмотров: 288
Please
U2
		   Please By U2
Tabbed by Quynh ar-max@tiscali.co.uk

Organ Riff
 Am Asus2 D  Am
-0--0-----2--0--
-1--0-----3--1--
-2--2-----2--2--
-2--2-----0--2--
-0--0-----0--0--
----------------

Guitar break[riff in 2nd verse]
--------------------|--------------|-----------------------------
--------------------|--------------|-----------------------------
--------------------|--------------|-----------------------------
--9---9--7h9--7--9--|-9--7--9--7--9|-9--7--9--7--9--7-----7h9--9-
--9---9--9-9--9--9--|-9--9--9--9--9|-9--9--9--9--9-----9---------
--------------------|--------------|-----------------------------

Chorus
---------------------------------
---------------------------------
--------------------------~~~~~~-
-------9--11--12-------9--11-----        play 2 times then
-0--0-------------0--0-----------         play guitar break
---------------------------------

Wah Riff in the bridge
-----------------------------:-------------------------------
-----------------------------:-------------------------------
-----------------------------:-------------------------------
----9--7------7--7-------7h9-:-----9--7-------7----7---------
----------7h9-------9--9-----:-----------7h9-----9----9-8-7--
-7---------------------------:-7-----------------------------

------------------------------:------------------------------
------------------------------:------------------------------
------------------------------:------------------------------
----9--7-----7-7---7---7--7h9-:-----9--7--9-7----7--9--------
----------9------9------------:----------------9------9-8-7--
-7----------------------------:--7---------------------------

-------------------------------
-------------------------------
-------------------------------
----9--7----7-7----7---7--7h9--
----------9------9-------------
-7-----------------------------

Let ring
---------------------------------------------------------
---------------------------------------------------------
-----7-----7-----7------------7-----7-----7--------------
--9-----9-----9-----9---7--9-----9-----9------9----------
---------------------------------------------------------
---------------------------------------------------------

Play when Bono sings 'so love'

--------------------------------------------------------------
--15------15------15------15--------------15--15------15------
-------16-----16------16------16---14h16---------16------16--
--------------------------------------------------------------
--------------------------------------------------------------
--------------------------------------------------------------

--------------------------------
-15-----15-----15------15-------
-----14----14------14-----------
--------------------------------
--------------------------------
--------------------------------

Ending notes[play softly]
----------------------------
----------------------------
----------------------------
---------7--9-----------------
------9----------------------
--10--------------------------

Lyrics
Am                   Asus2   D                   Am
   G you never knew love, until you crossed the line of grace
Am                  Asus2    D     		Am
  G you never felt wanted until you've someone slap
Am  		    Asus2    D               Am
  G you never felt alive until you'd almost wasted away

    Am
You had to win
    Asus2
You couldn't just pass
    D               Am
The smartest ass at top of the class
     Am
Your flying colours
     Asus2
Your family tree
    D			Am
And all your lessons in history

please
please
please
get up of your knees
please
please
please
please

Am               Asus2
  G you never knew
    D                  Am
How low you stooped to make that call
Am              Asus2         D
  And you never knew what was on the ground
           Am
'till they made you crawl
Am            Asus2         D              aAm
  G you never knew that the heaven you keep you stole
Am
Your catholic blues
Asus2
Your common shoes
     D                         Am
Your stick on tattoos that are making the news
     Am
Your holy walk
     Asus2
Your northern star
     D                     Am
Your sermon mount from the boot of your car

please
please
please
Get up of your knees
please
please
please
Leave me out of this mess

   Am      Asus2
so love is hard
    D       Am
and love is tough
    Am      Asus2         D        Am
but love is not what your thinking of

September
Streets capsizing
Spilling over
down the drain
shards glass slpinters like rain
But you could only feel your own pain
October
Talk getting nowhere
November and December
Remember
Have we just started again?

please, please, please
Get up
please, please, please, please

G love is big, is bigger than us
But love is not what your thinking of

That's what lovers deal
It's what lovers steal
You know I found it hard to recieve
Cause you my love I could never believe


Have fun ;)
Q     
Добавлено: 04.09.2013
Другие материалы по этой песне:

Страница создана 19.04.2012
http://primanota.ru/u2/please-chords.htm
Привет, Гость.
Предлагаем пройти революционный курс по гитаре.
Подарок от PrimaNota.Ru, забирай!