PrimaNota.ru - самый крупный в мире бесплатный архив песенных текстов, аккордов, табулатур и нот


U2 - Hold Me Thrill Me Kiss Me Kill Me Live - бас-таба, видео

Регистрация Запомнить меня
Войти через:  Facebook Google Twitter Vk Yandex Mail.ru

U2 - Hold Me Thrill Me Kiss Me Kill Me Live - бас-таба, видео

Печатать
Просмотров: 118
ARTIST: U2

TITLE: HOLD ME THRILL ME KISS ME KILL ME (LIVE 360 TOUR)



BY: LUCA GEMMA



Tune Down 1/2 step


INTRO

G|------------------|------------------|------------------|------------------|
D|------------------|------------------|------------------|------------------|
A|7---5------------5|7---5------------5|7---5------------5|7---5-------------|
E|--------7---33-3--|--------7---33-3--|--------7---33-3--|--------7---11-1--|

G|-----------------|-----------------|-----------------|-----------------|
D|-----------------|-----------------|-----------------|-----------------|
A|7-7-57-5-77-575--|7-7-57-5-77-575--|7-7-57-5-77-575--|7-7-57-5-77-575--|
E|---------------7-|---------------7-|---------------7-|---------------7-|

VERSE

G|-----------------|-----------------|-----------------|-----------------|
D|-----------------|-----------------|-----------------|-----------------|
A|7-7-57-5-77-575--|7-7-57-5-77-575--|7-7-57-5-77-575--|7-7-57-5-77-575--|
E|---------------7-|---------------7-|---------------7-|---------------7-|

G|--------2--------|-----------------|-----------------|-----------------|
D|-------------4-2-|--------5--------|-----------------|-----------------|
A|0-0--------------|-------------7-5-|7-7-57-5-77-575--|7-7-57-5-77-575--|
E|-----------------|3-3--------------|---------------7-|---------------7-|

VERSE

G|-----------------|-----------------|-----------------|-----------------|
D|-----------------|-----------------|-----------------|-----------------|
A|7-7-57-5-77-575--|7-7-57-5-77-575--|7-7-57-5-77-575--|7-7-57-5-77-575--|
E|---------------7-|---------------7-|---------------7-|---------------7-|

G|--------2--------|-----------------|-----------------|-----------------|
D|-------------4-2-|--------5--------|-----------------|-----------------|
A|0-0--------------|-------------7-5-|7-7-57-5-77-575--|7-7-57-5-77-575--|
E|-----------------|3-3--------------|---------------7-|---------------7-|

CHORUS

G|---------------|-----------------|
D|---------------|--3--------5-5>75|
A|2--2-2--0--0-0-|-----------------|
E|---------------|1---1-3----------|


G|---------------|-----------------|
D|---------------|--3--------5-5>75|
A|2--2-2--0--0-0-|-----------------|
E|---------------|1---1-3----------|


G|---------------|-----------------|
D|---------------|--3--------5-5<75|
A|2--2-2--0--0-0-|-----------------|
E|---------------|1---1-3----------|


G|---------------|-----------------|
D|---------------|-----------------|
A|2--2-2--0--0-0-|-----------------|
E|---------------|1<-13->----------|

G|-----------------|-----------------|-----------------|-----------------|
D|-----------------|-----------------|-----------------|-----------------|
A|7-7-57-5-77-575--|7-7-57-5-77-575--|7-7-57-5-77-575--|7-7-57-5-77-575--|
E|---------------7-|---------------7-|---------------7-|---------------7-|

VERSE

G|-----------------|-----------------|-----------------|-----------------|
D|-----------------|-----------------|-----------------|-----------------|
A|7-7-57-5-77-575--|7-7-57-5-77-575--|7-7-57-5-77-575--|7-7-57-5-77-575--|
E|---------------7-|---------------7-|---------------7-|---------------7-|

G|--------2--------|-----------------|-----------------|-----------------|
D|-------------4-2-|--------5--------|-----------------|-----------------|
A|0-0--------------|-------------7-5-|7-7-57-5-77-575--|7-7-57-5-77-575--|
E|-----------------|3-3--------------|---------------7-|---------------7-|

CHORUS

G|---------------|-----------------|
D|---------------|--3--------5-5>75|
A|2--2-2--0--0-0-|-----------------|
E|---------------|1---1-3----------|


G|---------------|-----------------|
D|---------------|--3--------5-5>75|
A|2--2-2--0--0-0-|-----------------|
E|---------------|1---1-3----------|


G|---------------|-----------------|
D|---------------|--3--------5-5<75|
A|2--2-2--0--0-0-|-----------------|
E|---------------|1---1-3----------|


G|---------------|-----------------|
D|---------------|-----------------|
A|2--2-2--0--0-0-|-----------------|
E|---------------|1<-13->----------|

G|-----------------|-----------------|
D|-----------------|-----------------|
A|7-7-57-5-77-575--|7-7-57-5-77-575--|
E|---------------7-|---------------7-|

G|------------------|------------------|------------------|------------------|
D|------------------|------------------|------------------|------------------|
A|7---5------------5|7---5------------5|7---5------------5|7---5-------------|
E|--------7---33-3--|--------7---33-3--|--------7---33-3--|--------7---11-1--|

BREAK

G|------------------|------------------|------------------|------------------|
D|------------------|------------------|------------------|------------------|
A|------------------|------------------|------------------|------------------|
E|0~~~~-------------|------------------|---0--0--0--------|---0--0--12>------|

G|------------------|------------------|------------------|------------------|
D|------------------|------------------|------------------|------------------|
A|------------------|------------------|------------------|------------------|
E|---0--0--0--------|---0--0--12>------|---0--0--0--------|---0--0--12>------|

G|--------2---------|------------------|-----------------|-----------------|
D|-------------4-2--|--------5---------|-----------------|-----------------|
A|0-0---------------|-------------7-5--|-----------------|-----------------|
E|------------------|3-3---------------|---0--0--0-------|----0--0--12>----|

CHORUS

G|---------------|-----------------|
D|---------------|--3--------5-5>75|
A|2--2-2--0--0-0-|-----------------|
E|---------------|1---1-3----------|


G|---------------|-----------------|
D|---------------|--3--------5-5>75|
A|2--2-2--0--0-0-|-----------------|
E|---------------|1---1-3----------|


G|---------------|-----------------|
D|---------------|--3--------5-5<75|
A|2--2-2--0--0-0-|-----------------|
E|---------------|1---1-3----------|


G|---------------|-----------------|
D|---------------|-----------------|
A|2--2-2--0--0-0-|-----------------|
E|---------------|1<-13->----------|

G|-----------------|-----------------|-----------------|-----------------|
D|-----------------|-----------------|-----------------|-----------------|
A|7-7-57-5-77-575--|7-7-57-5-77-575--|7-7-57-5-77-575--|7-7-57-5-77-575--|
E|---------------7-|---------------7-|---------------7-|---------------7-|

OUTRO

G|------------------|------------------|------------------|------------------|
D|------------------|------------------|------------------|------------------|
A|7---5------------5|7---5------------5|7---5------------5|7---5------------5|
E|--------7---33-3--|--------7---33-3--|--------7---33-3--|--------7---33-3--|

G|------------------|------------------|------------------|------------------|
D|------------------|------------------|------------------|------------------|
A|7---5------------5|7---5------------5|7---5-------------|7---5-------------|
E|--------7---11-1--|--------7---11-1--|--------7---11-1--|--------7---11-1--|

G|------------------|------------------|------------------|------------------|
D|------------------|------------------|------------------|------------------|
A|------------------|------------------|------------------|------------------|
E|1<-13~~~~~--------|------------------|------------------|------------------|

G|------------------|
D|------------------|
A|------------------|
E|12>~~~------------|

Question, Comments, Corrections shall be sent to gemma.luca@gmail.com
Добавлено: 24.06.2012
Другие материалы по этой песне:

Страница создана 17.05.2012
http://primanota.ru/u2/hold-me-thrill-me-kiss-me-kill-me-live-chords.htm
Привет, Гость.
Предлагаем пройти революционный курс по гитаре.
Подарок от PrimaNota.Ru, забирай!