PrimaNota.ru - самый крупный в мире бесплатный архив песенных текстов, аккордов, табулатур и нот


U2 - I Still Havent Found What Im Looking For Live - таба, видео

Регистрация Запомнить меня
Войти через:  Facebook Google Twitter Vk Yandex Mail.ru

U2 - I Still Havent Found What Im Looking For Live - таба, видео

Печатать
Просмотров: 152
I Still Havent Found What Im Looking For – U2

„Fingerpicking“-Version

Capo on 2nd or 4th fret

Chords:
A       x07650 (x02220)
Amaj7   x07654 (x02120)
Dsus2   xx0765 (xx0230)
Dmaj9#11        xx0754
E       076454 (022100)
D       x54232 (xx0232)

Verses:
  A                       Amaj7    A                    Amaj7 A
e ----0-------0-------0---4--p0---|----0-------0-------0---4--p0---|
b --5---5---5---5---5---5---------|--5---5---5---5---5---5---------|
g --------------------------------|--------------------------------|
d 7-------7-------7---------------|7-------7-------7---------------|
a --------------------------------|--------------------------------|
e --------------------------------|--------------------------------|
 I have climbed highest mountains I have run through the fields

  Dsus2                  Dmaj9#11  A                    Amaj7 A
e ----0-------0-------0---4--p0---|----0-------0-------0---4--p0---|
b --5---5---5---5---5---5---------|--5---5---5---5---5---5---------|
g --------------------------------|--------------------------------|
d 0-------0-------0---------------|7-------7-------7---------------|
a --------------------------------|--------------------------------|
e --------------------------------|--------------------------------|
  Only to be with you             Only to be with you

I have run - I have crawled
I have scaled - these city walls
These city walls - Only to be with you

Refrain
  E               D                A                   Amaj7 A
e --------------------------------|----0-------0-------0---4--p0---|
b ----5--------------3------------|--5---5---5---5---5---5---------| 2x
g --4-------4------2-------3------|--------------------------------|
d ------------6--------------4----|7-------7-------7---------------|
a ----------------5---------------|--------------------------------|
e 0-------------------------------|--------------------------------|
  But I   still  haven't  found   what I'm looking for
  But I   still  haven't  found   what I'm looking for

I have kissed - honey lips 
Felt the healing - in her fingertips
It burned like fire - This burning desire

I have spoke - with the tongue of angels 
I have held - the hand of a devil
It was warm in the night - I was cold as a stone

But I still haven't found - What I'm looking for
But I still haven't found - What I'm looking for

(Bridge ?)

I believe - in the Kingdom Come 
Then all the colors will - bleed into one
Bleed into one - But yes I'm still running. 

You broke the bonds - You loosened the chains 
You carried the cross - And my shame
And my shame - You know I believed it

But I still haven't found - What I'm looking for
But I still haven't found - What I'm looking for
Добавлено: 07.07.2012
Другие материалы по этой песне:

Страница создана 12.04.2012
http://primanota.ru/u2/i-still-havent-found-what-im-looking-for-live-chords.htm
Привет, Гость.
Предлагаем пройти революционный курс по гитаре.
Подарок от PrimaNota.Ru, забирай!