PrimaNota.ru - самый крупный в мире бесплатный архив песенных текстов, аккордов, табулатур и нот


Ty Segall - Finger - таба, видео

Регистрация Запомнить меня
Войти через:  Facebook Google Twitter Vk Yandex Mail.ru

Ty Segall - Finger - таба, видео

Печатать
Просмотров: 176
Each Four -'s is equal to one beat
Intro
e|4-------4---4--4|4---4---4---4---| 
B|4-------4---4--4|6---4---4---4---|
G|5-------5---5--5|5---5---7---5---|
D|6-------6---6--6|6---6---6---6---|
A|6-------6---6--6|----------------|
E|4-------4---4--4|----------------|
                   Finger away

e|7---7-----------|7---7-----------|
B|9---9---7---7---|9---9---7---7---|
G|9---9---8---8---|9---9---8---8---|
D|9---9---9---9---|9---9---9---9---|
A|7---7---9---9---|7---7---9---9---|
E|--------7---7---|--------7---7---|

e|4-------4---4--4|4---4---4---4---| 
B|4-------4---4--4|6---4---4---4---|
G|5-------5---5--5|5---5---7---5---|
D|6-------6---6--6|6---6---6---6---|
A|6-------6---6--6|----------------|
E|4-------4---4--4|----------------|
                   Finger away

e|7---7-----------|7---7-----------|
B|9---9---7---7---|9---9---7---7---|
G|9---9---8---8---|9---9---8---8---|
D|9---9---9---9---|9---9---9---9---|
A|7---7---9---9---|7---7---9---9---|
E|--------7---7---|--------7---7---|

e|4-------4---4--4|3--33---3---3--3| 
B|4-------4---4--4|3--33---3---3--3|
G|5-------5---5--5|4--44---4---4--4|
D|6-------6---6--6|5--55---5---5--5|
A|6-------6---6--6|5--55---5---5--5|
E|4-------4---4--4|3--33---3---3--3|
  Ooooooohh
e|2--22---2---2--2|0---0---0---0--0|
B|4--44---4---4--4|0---0---0---0--0|
G|4--44---4---4--4|1---1---1---1--1|
D|4--44---4---4--4|2---2---2---2--2|
A|2--22---2---2--2|2---2---2---2--2|
E|2--22---2---2--2|0---0---0---0--0|

e|0--00---0---0--0|0---0---0---0--0|
B|0--00---0---0--0|0---0---0---0--0|
G|1--11---1---1--1|1---1---1---1--1|
D|2--22---2---2--2|2---2---2---2--2|
A|2--22---2---2--2|2---2---2---2--2|
E|0--00---0---0--0|0---0---0---0--0|

e|0---------------|
B|0---------------|
G|1---4---6---6---|
D|2---4---6---6---|
A|2---2---4---4---|
E|0---------------| (Play everything one more time)

Verse

e|----------------|----------------|----------------|----------------|
B|----------------|----------------|----------------|----------------|
G|----------------|----4---6---6---|----------------|----4---6---6---|
D|6-------6---6---|6---4---6---6---|6-------6---6---|6---4---6---6---|
A|6-------6---6---|6---2---4---4---|6-------6---6---|6---2---4---4---|
E|4-------4---4---|4---------------|4-------4---4---|4---------------|

e|----------------|----------------|----------------|----------------|
B|----------------|----------------|----------------|----------------|
G|----------------|----------------|----------------|----4---6---6---|
D|5-------5---5---|5---2---2---2---|6-------6---6---|6---4---6---6---|
A|5-------5---5---|5---2---2---2---|6-------6---6---|6---2---4---4---|
E|3-------3---3---|3---0---0---0---|4-------4---4---|4---------------|

Добавлено: 12.09.2013
Другие материалы по этой песне:
  • Аккорды и текст

Страница создана 12.09.2013
http://primanota.ru/ty-segall/finger-chords.htm
Привет, Гость.
Предлагаем пройти революционный курс по гитаре.
Подарок от PrimaNota.Ru, забирай!