PrimaNota.ru - самый крупный в мире бесплатный архив песенных текстов, аккордов, табулатур и нот


Ty Segall - I Bought My Eyes - таба, видео

Регистрация Запомнить меня
Войти через:  Facebook Google Twitter Vk Yandex Mail.ru

Ty Segall - I Bought My Eyes - таба, видео

Печатать
Просмотров: 182
-------------------------------------------------------------------------------
                             I BOUGHT MY EYES - Ty Segall
-------------------------------------------------------------------------------


Fig. 1

   Bb       C       D
e|---------------------------------------|
B|------3-3-----3-3-----3-3-----3-3------|
G|------0-0-----0-0-----2-2-----2-0------|
D|------------------0-0-----0-0----------|  
A|--1-1-----3-3--------------------------|
E|---------------------------------------|

Fig. 2

   Bb       C       F       G
e|-----------------------------------------------------------|
B|------3-3-----3-3-----3-3-----3-3-----3-3----3-3-----3-3---|
G|------0-0-----0-0-----0-0-----0-0-----0-0----0-0-----0-0---|
D|-----------------------------------------------------------|
A|--1-1-----3-3----------------------------------------------|
E|------------------1-1-----3-3-----3-3-----3-3----3-3-------|


INTRO
Fig. 1  x2
Fig. 2  x1

VERSE 1

Bb  C     D       Bb  C     D           <- Fig. 1
  I was a rich man, I was a poor man,
Bb    C        F     G                  <- Fig. 2
  but now I'll never know 
Bb        C       D                     <- Fig. 1
  They're ringing surgeons,
Bb   C              D                   <- Fig. 1
  my eyes have been worthless
Bb    C        F     G                  <- Fig. 2
  And now I'll never see you
Bb   C   D                              <- Fig. 1
huh, uh, uh
Bb   C   D                              <- Fig. 1
huh, uh, uh
Bb   C   F   G                          <- Fig. 2
huh, uh, uh  uuuh


POWER-CHORDS!!

Bb  C   D    x2  
Bb  C   D  F  A
Bb  C   D    x2  
Bb  C   D  F  A


one guitar plays this over the chords:
    
    Bb       C        D
e|-----------------------------------|
B|--3h4p3----5h6p5----7h8p7h8p7h8p7--|
G|--3--------5--------7--------------|
D|-----------------------------------|
A|-----------------------------------|
E|-----------------------------------|



VERSE 2 

Bb     C        D     Bb   C          D
  I've made a purchase, my eyes still worthless
Bb    C        D        F                    A
  I still will never see, what life could be
Bb    C      D    Bb    C      D
  She was my lover  she was my other
Bb    C        D     F                 A  
  But now i'll never know, how we will grow

Bb   C   D                              
huh, uh, uh
Bb   C   D                              
huh, uh, uh
Bb   C   D   F    A                     
huh, uh, uuuuuuh  uuuh


Bb   C   D                              
huh, uh, uh
Bb   C   D                              
huh, uh, uh
Bb   C   D   F    A                     
huh, uh, uuuuuuh  uuuh


SOLO 

guitar 1
e|---------------------------------|
B|---------------------------------|
G|---77-6-7------------------------|
D|-----------999-7-----------------|   
A|------------------999-8-9-8-9----|
E|---------------------------------|


guitar 2 (may not be entirely correct)
e|---------------------------------|
B|---------------------------------|
G|---------------------------------|
D|---88-7-8------------------------|
A|-----------999-8--555-4-5-4-5----|
E|---------------------------------|

the two guitar parts above are played in unison 3 times, then:


e|--------------------|
B|--------------------|
G|---2-----2-4--6-----|
D|--------------------|
A|--------------------|
E|--------------------|


again the unison part, then weirdness ensues...
somewhere in the end the unison part is played again
live they end with:

Bb    C     D      (played with a longer pause between chords)
Добавлено: 02.10.2013
Другие материалы по этой песне:
  • Аккорды и текст

Страница создана 02.10.2013
http://primanota.ru/ty-segall/i-bought-my-eyes-chords.htm
Привет, Гость.
Предлагаем пройти революционный курс по гитаре.
Подарок от PrimaNota.Ru, забирай!