PrimaNota.ru - самый крупный в мире бесплатный архив песенных текстов, аккордов, табулатур и нот


Trans-siberian Orchestra - O Come All Ye Faithful O Holy Night - таба, видео

Регистрация Запомнить меня
Войти через:  Facebook Google Twitter Vk Yandex Mail.ru

Trans-siberian Orchestra - O Come All Ye Faithful O Holy Night - таба, видео

Печатать
Просмотров: 88
O Come All Ye Faithful/O Holy Night Final Version
Song 2 on Christmas Eve and Other Stories
(Standard Tuning)
(.17)    (.33)
E------------------------------------------|
B------------------------------------------|
G------------10-9-7-9-12-14-9---5-5--------|
D-3--3-3-----10-9-7-9-12-14-9-5-5-5-3--3-3-|
A-3--3-3—----8--7-5-7—10-12-7-5-3-3-3--3-3-|
E-1--1-1-13\------------------3-----1--1-1-|
     *                             *
(1.02)
E------------------15-17---------------15--------|
B-17b18-17~15-17-18-----17-18p17-15-17-----------|
G------------------------------------------17-17-|
D------------------------------------------------|
A------------------------------------------------|
E------------------------------------------------|
(1.14)
E--------------------------17-18-19-20-|
B------------17---18—-20---------------|
G---17—-19------17—-17—-17-------------|
D-17—-17—-17---------------------------|
A--------------------------------------|
E--------------------------------------|

E-18-17-18-20p18-17-15-17----------------------|
B-------------------------18-20-17h18p17-15----|
G-------------------------------------------17-|
D----------------------------------------------|
A----------------------------------------------|
E----------------------------------------------|

E-------17-18-19-20-|
B-18-20-------------|
G-------------------|
D-------------------|
A-------------------|
E-------------------|
(1.33)
E-17-18-17h18p17-15-------------------------------------------|
B-------------------18-17-15----------------------------------|
G----------------------------17-15-14-14-15-17-12-14b15r14----|
D----------------------------------------------------------15-|
A-------------------------------------------------------------|
E-------------------------------------------------------------|
(1.42)
E---------------------------------|
B---------------------------------|
G--------------------------3-3----|
D--------------------------3-3-3--|  (x4)
A-----------------1-1111-1-1-1-3--|
E-1-1111-1-1111-1--------------1--|
  ************************

(2.00)
E---------------10-10---10-13-13p12-------------|
B-10-10-10-13-13------11------------13-10-------|
G-----------------------------------------12-10-|
D-----------------------------------------------|
A-----------------------------------------------|
E-----------------------------------------------|

E-------------------|
B-10-11b13-10-------|
G-------------12-10-|
D-------------------|
A-------------------|
E-------------------|
(2.16)
E---------------------------------------------|
B----------------10-11-12-13-10b12r10---------|
G-----------10-12---------------------12---10-|
D------10-12-----------------------------12---|
A----12---------------------------------------|
E-/13-----------------------------------------|
(2.19)
E---------------10-10---10-12b13r12--| (slowly)
B-10-10-10-13-13------11-------------|
G------------------------------------|
D------------------------------------|
A------------------------------------|
E------------------------------------|

E---------------------------------------------|
B-13-15p13p11-10-15b17~-13-15-17-17b18r17-----|
G-----------------------------------------14\-|
D---------------------------------------------|
A---------------------------------------------|
E---------------------------------------------|
(2.38)
E--------------------13-------------|
B-13-13-15---13-15-13------13b15r13-|
G----------12-----------14----------|
D-----------------------------------|
A-----------------------------------|
E-----------------------------------|
(2.48)
E----------12------------13-------|
B-13-13-15-------13-15-13------13-|
G-------------12\-----------14----|
D---------------------------------|
A---------------------------------|
E---------------------------------|
(2.55)
E----------------------------------------------------------|
B-------------------13h15h17-18-20-18-20b22~17-18p17-15b17-|
G----------12h14h15----------------------------------------|
D-12h14h15-------------------------------------------------|
A----------------------------------------------------------|
E----------------------------------------------------------|

(3.04)
E----------------------------------15-17-17b18-15---|\
B-------------------------15h17h18------------------|
G-----------------14h15h17--------------------------|
D---------14h15h17----------------------------------|
A-14h15h17------------------------------------------|
E---------------------------------------------------|

E-10-10-10-12b13r12-|
B-------------------|
G-------------------|
D-------------------|
A-------------------|
E-------------------|
(3.11)
E-13p12p10------------------------------|
B---------13p12p10----------------------|
G------------------12p10----------------|
D------------------------12p10----------|
A------------------------------12p10p8~-|
E---------------------------------------|

E-17~17-20-15------------------------------------|
B-------------15p13-18-17-15-13-13\-13-15-13-13\-|
G------------------------------------------------|
D------------------------------------------------|
A------------------------------------------------|
E------------------------------------------------|
(3.28)
E-------------------------------------12---13----|
B----------------------------13-15---------------|
G-12-14-15-14h15p14p12-14-15-------14----14---14-|
D------------------------------------------------|
A------------------------------------------------|
E------------------------------------------------|
(3.31)
E-15-17h18-15~------20-17-15-17p15-13-15p13-12-|
B----------------------------------------------|
G-------------17-17----------------------------|
D----------------------------------------------|
A----------------------------------------------|
E----------------------------------------------|
(3.46)
E-12h13p12-10-12-13-13b15r13-|
B----------------------------|
G----------------------------|
D----------------------------|
A----------------------------|
E----------------------------|

-End


Key
*= Palm Mute
b= bend
r= release
h= hammer
p= pull-off
~= vibro
\/= slides

This is probably my last tab of this song
It should be 100% correct
Rock on
Добавлено: 24.02.2012
Другие материалы по этой песне:

Страница создана 24.02.2012
http://primanota.ru/trans-siberian-orchestra/o-come-all-ye-faithful-o-holy-night-chords.htm
Привет, Гость.
Предлагаем пройти революционный курс по гитаре.
Подарок от PrimaNota.Ru, забирай!