PrimaNota.ru - самый крупный в мире бесплатный архив песенных текстов, аккордов, табулатур и нот


Trans-siberian Orchestra - Wizards In Winter - таба, бас-таба, видео

Регистрация Запомнить меня
Войти через:  Facebook Google Twitter Vk Yandex Mail.ru

Trans-siberian Orchestra - Wizards In Winter - таба, бас-таба, видео

Печатать
Просмотров: 363
Новый альбом группы 'Черный Кузнец' по культовому сериалу 'Сверхъестественное'!
hey this is my first tab, for the most part i think it sounds like the song,and this is 
the first part, but any comments or questions just email me at laxboard00@yahoo.com


e---------------------------------------------------------------------------|
b---------------------------------------------------------------------------|
g--------------------------------------------------2------------------------|
d--2-2-----2-2-----5-5-----5-5-----2-2-----2-2-----2------------------------|
a--2-2---0-2-2---0-5-5---0-5-5---0-2-2---0-2-2---0-0------------------------|
e--0-0---0-0-0---0-3-3---0-3-3---0-0-0---0-0-0---0--------------------------|

e---------------------------------------------------------------------------|
b---------------------------------------------------------------------------|
g---------------------------------------------------------------------------|
d--2-2-----2-2-----5-5-----5-5-----2-2-----2-2---7-5------------------------|
a--2-2---0-2-2---0-5-5---0-5-5---0-2-2---0-2-2---7-5------------------------|
e--0-0---0-0-0---0-3-3---0-3-3---0-0-0---0-0-0---5-3------------------------|

e---------------------------------------------------------------------------|
b---------------------------------------------------------------------------|
g----------------------------------4----------------------------------------|
d--2----2-----5----5-----2----2----4---------x2-----------------------------|
a--2-0--2-0---5-0--5-0---2-0--2-0--2----------------------------------------|
e--0-0--0-0---3-0--3-0---0-0--0-0-------------------------------------------|

e---------------------------------------------------------------------|
b---------------------------------------------------------------------|
g------4-------4---44--2----------------------------------------------|
d------4-------4---44--2--5--4----------------------------------------|
a----012-----012---22--0--5--4----------------------------------------|
e-023-----023-------------3--2----------------------------------------|

e---------------------------------------------------------------------------|
b---------------------------------------------------------------------------|
g----------------------------------4----------------------------------------|
d--2----2-----5----5-----2----2----4---------x2-----------------------------|
a--2-0--2-0---5-0--5-0---2-0--2-0--2----------------------------------------|
e--0-0--0-0---3-0--3-0---0-0--0-0-------------------------------------------|

e-------------------------------------------------------------------|
b-------------------------------------------------------------------|
g------4-------4---44--44-------------------------------------------|
d------4-------4---44--44-------------------------------------------|
a----012-----012---22--22-------------------------------------------|
e-023-----023-------------------------------------------------------|

the for a while, just keep strumming


g-----------|
d-----2-----|
a-----2-----|
e-----0-----|

whatevers here is used for pretty much the rest of the song
Добавлено: 29.05.2012
Другие материалы по этой песне:

Страница создана 09.03.2012
http://primanota.ru/trans-siberian-orchestra/wizards-in-winter-chords.htm
Привет, Гость.
Предлагаем пройти революционный курс по гитаре.
Подарок от PrimaNota.Ru, забирай!