PrimaNota.ru - самый крупный в мире бесплатный архив песенных текстов, аккордов, табулатур и нот


Trans-siberian Orchestra - A Mad Russians Christmas - таба, бас-таба, видео

Регистрация Запомнить меня
Войти через:  Facebook Google Twitter Vk Yandex Mail.ru

Trans-siberian Orchestra - A Mad Russians Christmas - таба, бас-таба, видео

Печатать
Просмотров: 141
                            A MAD RUSSIAN'S CHRISTMAS
                     As recorded by Trans-Siberian Orchestra

Gtr I (E A D G B E) - 'Rhythm'
Gtr II (E A D G) - 'Bass'
Gtr III (E A D G B E) - 'Lead 1'
Gtr IV (E A D G B E) - 'Lead 2'
Gtr V (E A D G B E) - 'Lead 3'

  Slowly Q=50
                                             E5
 4/4
  Gtr I
  W          W          W          H    Q  E e
|----------|----------|----------|-------------|
|----------|----------|----------|-------------|
|----------|----------|----------|-------------|
|----------|----------|----------|-----------2-|
|----------|----------|----------|-----------2-|
|----------|----------|----------|-----------0-|
|
| Gtr II
| W          W          W          H    Q  E E
|----------|----------|----------|-------------|
|----------|----------|----------|-------------|
|----------|----------|----------|-------------|
|----------|----------|----------|-----------0-|


                             3/4
              >
  W          +H     +Q.   e   H.
|----------|----------------|-------|
|----------|----------------|-------|
|----------|----------------|-------|
|-2--------|-(2)----(2)---2-|-2-----|
|-2--------|-(2)----(2)---2-|-2-----|
|-0--------|-(0)----(0)---0-|-0-----|
|
|             >
| W          +H     +Q.   e   H.
|----------|----------------|-------|
|----------|----------------|-------|
|----------|----------------|-------|
|-0--------|-(0)----(0)---0-|-0-----|


  D5      C#5     C5      N.C.      E5      N.C.      E5      N.C.
 4/4
  PM|  ~~~PM|  ~~~PM|  ~~~
  S S  E  S S  E  S S  E  E   S S   H.      E   S S   H.      E   S S
|---------------------------------|-----------------|-----------------|
|---------------------------------|-----------------|-----------------|
|---------------------------------|-----------------|-----------------|
|-7-7-----6-6-----5-5-------------|-2---------------|-2---------------|
|-5-5-[5]-4-4-[4]-3-3-[3]---------|-2---------------|-2---------------|
|-------------------------5b6r3-2-|-0-------5b6r3-2-|-0-------5b6r3-2-|
|
| S S  E  S S  E  S S  E  E   S S   H.      E   S S   H.      E   S S
|---------------------------------|-----------------|-----------------|
|---------------------------------|-----------------|-----------------|
|-5-5--5--4-4--4--3-3--3----------|-----------------|-----------------|
|-------------------------5b6r3-2-|-0-------5b6r3-2-|-0-------5b6r3-2-|


  E5        D5      C#5     C5        N.C.
 3/4                                 2/4
            PM|  ~~~PM|  ~~~PM|  ~~~
  H.        S S  E  S S  E  S S  E    s s s s E T T T T
|---------|-------------------------|-------------------|
|---------|-------------------------|-------------------|
|---------|-------------------------|-------------------|
|-2-------|-7-7-----6-6-----5-5-----|---2---2-----------|
|-2-------|-5-5-[5]-4-4-[4]-3-3-[3]-|-2---3---2-3-2-----|
|-0-------|-------------------------|---------------5-3-|
|
| H.        S S  E  S S  E  S S  E    s s s s E T T T T
|---------|-------------------------|-------------------|
|---------|-------------------------|---2---2-----------|
|---------|-5-5--5--4-4--4--3-3--3--|-2---3---2-3-2-----|
|-0-------|-------------------------|---------------5-3-|


             H.=H          E=50      H=H
 3/4
                                      >
                       PM------------|
  Q  Q  Q    H.        E E E E E E   +H.
|----------|---------|-------------|-----------|
|----------|---------|-------------|-----------|
|----------|---------|-------------|-----------|
|----------|---------|-------------|-----------|
|----------|---------|-2-3-2-3-2-3-|-(3)-------|
|-6--5--3--|-2-------|-------------|-----------|
|
| Q  Q  Q    H.        H       Q      H     Q
|----------|---------|-------------|-----------|
|----------|---------|-------------|-----------|
|----------|---------|-------------|-----------|
|-6--5--3--|-2-------|-------------|-----------|


 Section II
  Brightly Q=138
  G5                      C5    B5  A5  C5  D5
 4/4
  E Q  H    E   E Q  H    E   E E E E E E E E
|-------------|-------------|------------------|
|-------------|-------------|------------------|
|-------------|-----------5-|---4---2---5---7--|
|-5---------5-|-5---------5-|---4---2---5---7--|
|-5---------5-|-5---------3-|---2---0---3---5--|
|-3---------3-|-3-----------|------------------|
|
| E Q  H    E   E Q  H    E   E E E E E E E E
|-------------|-------------|------------------|
|-------------|-------------|------------------|
|-------------|-----------3-|---2---0---3---5--|
|-3---------3-|-3-----------|------------------|


    B5  C5  D5G5                            C5
  E E E E E E E E   E Q  H    E   E Q  H    E
|-----------------|-------------|-------------|
|-----------------|-------------|-------------|
|---4---5---7-----|-------------|-----------5-|
|---4---5---7-5---|-5---------5-|-5---------5-|
|---2---3---5-5---|-5---------5-|-5---------3-|
|-------------3---|-3---------3-|-3-----------|
|
| E E E E E E E E   E Q  H    E   E Q  H    E
|-----------------|-------------|-------------|
|-----------------|-------------|-------------|
|---2---3---5-----|-------------|-----------3-|
|-------------3---|-3---------3-|-3-----------|


    B5  A5  C5  D5    C5  B5  D5  C5    B5  A5  C5  D5
  E E E E E E E E   E E E E E E E E   E E E E E E E E
|-----------------|-----------------|-----------------|
|-----------------|-----------------|-----------------|
|---4---2---5---7-|---5---4---7---5-|---4---2---5---7-|
|---4---2---5---7-|---5---4---7---5-|---4---2---5---7-|
|---2---0---3---5-|---3---2---5---3-|---2---0---3---5-|
|-----------------|-----------------|-----------------|
|
| E E E E E E E E   E E E E E E E E   E E E E E E E E
|-----------------|-----------------|-----------------|
|-----------------|-----------------|-----------------|
|---2---0---3---5-|---3---2---5---3-|---2---0---3---5-|
|-----------------|-----------------|-----------------|


    C5  B5  D5  C5    A5  B5  D5  C5    A5  B5  D5  C5
  E E E E E E E E   E E E E E E E E   E E E E E E E E
|-----------------|-----------------|-----------------|
|-----------------|-----------------|-----------------|
|---5---4---7---5-|---2---4---7---5-|---2---4---7---5-|
|---5---4---7---5-|---2---4---7---5-|---2---4---7---5-|
|---3---2---5---3-|---0---2---5---3-|---0---2---5---3-|
|-----------------|-----------------|-----------------|
|
| E E E E E E E E   E E E E E E E E   E E E E E E E E
|-----------------|-----------------|-----------------|
|-----------------|-----------------|-----------------|
|---3---2---5---3-|---0---2---5---3-|---0---2---5---3-|
|-----------------|-----------------|-----------------|


                                      Section III
    B5  C5  B5  C5    B5  D5  D5G5     F#5
  E E E E E E E E   E E E E E E E E    E E E E E E E E
|-----------------|-----------------||-----------------|
|-----------------|-------------8---||-----------------|
|---4---5---4---5-|---4---7---7-7---||-----------------|
|---4---5---4---5-|---4---7---7-5---||-4-4-----4-4-----|
|---2---3---2---3-|---2---5---5-----||-4-4-----4-4-----|
|-----------------|-----------------||-2-2---0-2-2---0-|
|
| E E E E E E E E   E E E E E E E E    Q   E E Q   E E
|-----------------|-----------------||-----------------|
|-----------------|-------------5---||-----------------|
|---2---3---2---3-|---2---5---5-----||-------4-------4-|
|-----------------|-----------------||-2-------2-------|


  E E E E E E E E   E E E E E E E E    E     E   E  E E E   E   E
|-----------------|-----------------|-----------------------------|
|-----------------|-----------------|-----------------------------|
|-----------------|-----------------|-----------------------------|
|-4-4-----4-4-----|-4-4-----4-4-----|--4-----4--------4-4---------|
|-4-4-----4-4-----|-4-4-----4-4-----|--4-----4--------4-4---------|
|-2-2---0-2-2---0-|-2-2---0-2-2---0-|--2-----2------0-2-2-------0-|
|
| Q   E E Q   E E   Q   E E Q   E E    Q         E  E Q     E   E
|-----------------|-----------------|-----------------------------|
|-----------------|-----------------|-----------------------------|
|-------4-------4-|-------4-------4-|---------------4-----------4-|
|-2-------2-------|-2-------2-------|--2--------------2-----------|
|
| Gtr III
| W                 W                  Q        +H         +E   E
|-----------------|-----------------|-19b21====(19)-------(19)r17-|
|-----------------|-----------------|-----------------------------|
|-----------------|-----------------|-----------------------------|
|-----------------|-----------------|-----------------------------|
|-----------------|-----------------|-----------------------------|
|-----------------|-----------------|-----------------------------|


   E E E E E E E E     E  E E E E E E E     E  E E E E E E E
|------------------|--------------------|--------------------|
|------------------|--------------------|--------------------|
|------------------|--------------------|--------------------|
|--4-4-----4-4-----|---4--4-----4-4-----|---4--4-----4-4-----|
|--4-4-----4-4-----|---4--4-----4-4-----|---4--4-----4-4-----|
|--2-2---0-2-2---0-|---2--2---0-2-2---0-|---2--2---0-2-2---0-|
|
|  Q   E E Q   E E     Q    E E Q   E E     Q    E E Q   E E
|------------------|--------------------|--------------------|
|------------------|--------------------|--------------------|
|--------4-------4-|----------4-------4-|----------4-------4-|
|--2-------2-------|---2--------2-------|---2--------2-------|
|
|                      >
|  W                  +W                   +W
|------------------|--------------------|--------------------|
|-19---------------|-(19)---------------|-(19)---------------|
|------------------|--------------------|--------------------|
|------------------|--------------------|--------------------|
|------------------|--------------------|--------------------|
|------------------|--------------------|--------------------|


   E     E E E   E  E E E    E E E E E E E E     E  E E E E E E E
|-------------------------|------------------|--------------------|
|-------------------------|------------------|--------------------|
|-------------------------|------------------|--------------------|
|--4-----4-------4--4-----|--4-4-----4-4-----|---4--4-----4-4-----|
|--4-----4-------4--4-----|--4-4-----4-4-----|---4--4-----4-4-----|
|--2-----2---0---2--2---0-|--2-2---0-2-2---0-|---2--2---0-2-2---0-|
|
|  Q       E E   Q    E E    Q   E E Q   E E     Q    E E Q   E E
|-------------------------|------------------|--------------------|
|-------------------------|------------------|--------------------|
|------------4----------4-|--------4-------4-|----------4-------4-|
|--2-------------2--------|--2-------2-------|---2--------2-------|
|
|                                                >
|  H            +H           W                  +W
|-------------------------|------------------|--------------------|
|-15b17========(15)r======|=14---------------|-(14)---------------|
|-------------------------|------------------|--------------------|
|-------------------------|------------------|--------------------|
|-------------------------|------------------|--------------------|
|-------------------------|------------------|--------------------|


    E  E E E E E E E     E      E   E  E E E   E   E    E E E E E E E E
|--------------------|-------------------------------|------------------|
|--------------------|-------------------------------|------------------|
|--------------------|-------------------------------|------------------|
|---4--4-----4-4-----|---4------4--------4-4---------|--4-4-----4-4-----|
|---4--4-----4-4-----|---4------4--------4-4---------|--4-4-----4-4-----|
|---2--2---0-2-2---0-|---2------2------0-2-2-------0-|--2-2---0-2-2---0-|
|
|   Q    E E Q   E E     Q          E  E Q     E   E    Q   E E Q   E E
|--------------------|-------------------------------|------------------|
|--------------------|-------------------------------|------------------|
|----------4-------4-|-----------------4-----------4-|--------4-------4-|
|---2--------2-------|---2---------------2-----------|--2-------2-------|
|
|  +W                    Q         +H         +Q        W
|--------------------|-------------------------------|------------------|
|-(14)---------------|-------------------------------|------------------|
|--------------------|-[19]b21====(19)-------(19)r---|------------------|
|--------------------|-------------------------------|-16---------------|
|--------------------|-------------------------------|------------------|
|--------------------|-------------------------------|------------------|


    E  E E E E E E E     E  E E E E E E E   E E E E E E E E
|--------------------|--------------------|-----------------|
|--------------------|--------------------|-----------------|
|--------------------|--------------------|-----------------|
|---4--4-----4-4-----|---4--4-----4-4-----|-4-4-----4-4-----|
|---4--4-----4-4-----|---4--4-----4-4-----|-4-4-----4-4-----|
|---2--2---0-2-2---0-|---2--2---0-2-2---0-|-2-2---0-2-2---0-|
|
|   Q    E E Q   E E     Q    E E Q   E E   Q   E E Q   E E
|--------------------|--------------------|-----------------|
|--------------------|--------------------|-----------------|
|----------4-------4-|----------4-------4-|-------4-------4-|
|---2--------2-------|---2--------2-------|-2-------2-------|
|
|   >
|  +W                   +W                  W
|--------------------|--------------------|-----------------|
|--------------------|--------------------|-----------------|
|--------------------|--------------------|-----------------|
|-(16)---------------|-(16)---------------|-----------------|
|--------------------|--------------------|-----------------|
|--------------------|--------------------|-----------------|


   Section IV
    G5
    E E Q   H         H        Q   E E   E E Q   H
||------------------|------------------|-----------------|
||o-----------------|------------------|-----------------|
||------------------|------------------|-----------------|
||--5---------------|----------------5-|-5---------------|
||o-5---------------|----------------5-|-5---------------|
||--3---------------|----------------3-|-3---------------|
|
|   E E Q   H         H        Q   E E   E E Q   H
||------------------|------------------|-----------------|
||o-----------------|------------------|-----------------|
||o-----------------|------------------|-----------------|
||--3---------------|----------------3-|-3---------------|
|
|     PM|   PM|   PM--|   PM|  ~~~ PM|     PM|   PM|   PM
|   E E E E E E E E   E E E E  Q   E E   E E E E E E E E
||------------------|------------------|-----------------|
||o-----------------|------------------|-----------------|
||--7-----6-----7---|---6-----[7]------|-7-----6-----7---|
||----7-5---7-5---7-|-5---7-5------7-5-|---7-5---7-5---7-|
||o-----------------|------------------|-----------------|
||------------------|------------------|-----------------|


                                          Section V
  1.                   2.
                                           F#5
  W                    E E E E  E  E E E   E E E E E E E E
|-------------------||-------------------|-----------------|
|------------------o||-------------------|-----------------|
|-------------------||-------------------|-----------------|
|-------------------||-------------------|-4-4-----4-4-----|
|------------------o||---5-5-5--5--5-5-5-|-4-4-----4-4-----|
|-------------------||---3-3-3--3--3-3-3-|-2-2---0-2-2---0-|
|
| W                    E E E E  E  E E E   Q   E E Q   E E
|-------------------||-------------------|-----------------|
|------------------o||-------------------|-----------------|
|------------------o||-------------------|-------4-------4-|
|-------------------||---3-3-3--3--3-3-3-|-2-------2-------|
|
| PM  PM|  ~~~ PM|              ~~~
| E E E E  Q   E E     E E E E  Q    E E   W
|-------------------||-------------------|-----------------|
|------------------o||-------------------|-----------------|
|---6-----[7]-------||---6-----[7]-------|-----------------|
|-5---7-5------7-5--||-5---7-5-------7-5-|-4---------------|
|------------------o||-------------------|-----------------|
|-------------------||-------------------|-----------------|


    E E E E E E E E   E E E E E E E E   E E E E E E E E
||------------------|-----------------|-----------------|
||o-----------------|-----------------|-----------------|
||------------------|-----------------|-----------------|
||--4-4-----4-4-----|-4-4-----4-4-----|-4-4-----4-4-----|
||o-4-4-----4-4-----|-4-4-----4-4-----|-4-4-----4-4-----|
||--2-2---0-2-2---0-|-2-2---0-2-2---0-|-2-2---0-2-2---0-|
|
|   Q   E E Q   E E   Q   E E Q   E E   Q   E E Q   E E
||------------------|-----------------|-----------------|
||o-----------------|-----------------|-----------------|
||o-------4-------4-|-------4-------4-|-------4-------4-|
||--2-------2-------|-2-------2-------|-2-------2-------|


  C#sus4    E         F#m  C#susE
   E E  E E E E E E    E E  E E E E E E    E  E E E E E E E
|-------------------|-------------------|--------------------||
|-------------------|-------------------|-------------------o||
|-------------------|-------------------|--------------------||
|--4-4------4-4-----|--4-4------4-4-----|--4--4-----4-4------||
|--4-4------4-4-----|--4-4------4-4-----|--4--4-----4-4-----o||
|--2-2----0-2-2---0-|--2-2----0-2-2---0-|--2--2---0-2-2---0--||
|
|  Q    E E Q   E E    Q    E E Q   E E    Q    E E Q   E E
|-------------------|-------------------|--------------------||
|-------------------|-------------------|-------------------o||
|---------4-------4-|---------4-------4-|---------4-------4-o||
|--2--------2-------|--2--------2-------|--2--------2--------||
|
| Gtr III
|                                          >
|  q    q   q   q      q    q   H         +W
|-------------------|-------------------|--------------------||
|-----------9---9---|-10--------9-------|-(9)---------------o||
|-11---11---9---9---|-11---11---9-------|-(9)----------------||
|-11---11-----------|------11-----------|--------------------||
|-------------------|-------------------|-------------------o||
|-------------------|-------------------|--------------------||


                                        C#sus4    E
    E E E E E E E E   E E E E E E E E    E E  E E E E E E
||------------------|-----------------|-------------------|
||o-----------------|-----------------|-------------------|
||------------------|-----------------|-------------------|
||--4-4-----4-4-----|-4-4-----4-4-----|--4-4------4-4-----|
||o-4-4-----4-4-----|-4-4-----4-4-----|--4-4------4-4-----|
||--2-2---0-2-2---0-|-2-2---0-2-2---0-|--2-2----0-2-2---0-|
|
|   Q   E E Q   E E   Q   E E Q   E E    Q    E E Q   E E
||------------------|-----------------|-------------------|
||o-----------------|-----------------|-------------------|
||o-------4-------4-|-------4-------4-|---------4-------4-|
||--2-------2-------|-2-------2-------|--2--------2-------|
|
|   W                 W                  q    q   q   q
||------------------|-----------------|-------------------|
||o-----------------|-----------------|-----------9---9---|
||------------------|-----------------|-11---11---9---9---|
||------------------|-----------------|-11---11-----------|
||o-----------------|-----------------|-------------------|
||------------------|-----------------|-------------------|


                      1.
  F#m  C#susE
   E E  E E E E E E    E  E E E E E E E
|-------------------|--------------------||
|-------------------|-------------------o||
|-------------------|--------------------||
|--4-4------4-4-----|--4--4-----4-4------||
|--4-4------4-4-----|--4--4-----4-4-----o||
|--2-2----0-2-2---0-|--2--2---0-2-2---0--||
|
|  Q    E E Q   E E    Q    E E Q   E E
|-------------------|--------------------||
|-------------------|-------------------o||
|---------4-------4-|---------4-------4-o||
|--2--------2-------|--2--------2--------||
|
|                      >
|  q    q   H         +W
|-------------------|--------------------||
|-10--------9-------|-(9)---------------o||
|-11---11---9-------|-(9)----------------||
|------11-----------|--------------------||
|-------------------|-------------------o||
|-------------------|--------------------||


 Section VI
  2.
  G5
                      PM--|                       PM--|
  q  Q  H      H    E E E E   q  Q  H      H    E E E E
|------------|--------------|------------|--------------|
|------------|--------------|------------|--------------|
|------------|--------------|------------|--------------|
|-5----------|--------------|-5----------|--------------|
|-5----------|--------5-5-5-|-5----------|--------5-5-5-|
|-3----------|--------3-3-3-|-3----------|--------3-3-3-|
|
| q  Q  H      H    E E E E   q  Q  H      H    E E E E
|------------|--------------|------------|--------------|
|------------|--------------|------------|--------------|
|------------|--------------|------------|--------------|
|-3----------|--------3-3-3-|-3----------|--------3-3-3-|


  E5
                          PM----|                              PM--|
   W                H     E E E E     q   Q  H        H      E E E E
|---------------|-----------------|---------------|------------------|
|---------------|-----------------|---------------|------------------|
|---------------|-----------------|---------------|------------------|
|--2------------|-----------------|---2-----------|------------------|
|--2------------|---------2-2-2-2-|---2-----------|------------2-2-2-|
|--0------------|---------0-0-0-0-|---0-----------|------------0-0-0-|
|
|  W                H     E E E E     q   Q  H        H      E E E E
|---------------|-----------------|---------------|------------------|
|---------------|-----------------|---------------|------------------|
|---------------|-----------------|---------------|------------------|
|--0------------|---------0-0-0-0-|---0-----------|------------0-0-0-|
|
| Gtrs IV, V
|                   >
|  W               +W                +W              +W
|-22b24=========|=(22)------------|-(22)----------|-(22)r------------|
|-15b17=========|=(15)------------|-(15)----------|-(15)-------------|
|---------------|-----------------|---------------|------------------|
|---------------|-----------------|---------------|------------------|
|---------------|-----------------|---------------|------------------|
|---------------|-----------------|---------------|------------------|


  B5
              >
  W          +W           +W           +W
|----------|------------|------------|--------|
|----------|------------|------------|--------|
|----------|------------|------------|--------|
|-4--------|-(4)--------|-(4)--------|-(4)----|
|-2--------|-(2)--------|-(2)--------|-(2)----|
|----------|------------|------------|--------|
|
|             >
| W          +W           +W           +W
|----------|------------|------------|--------|
|----------|------------|------------|--------|
|-2--------|-(2)--------|-(2)--------|-(2)----|
|----------|------------|------------|--------|


               G5
               <
  Wx7          W
|------------|------|
|------------|------|
|------------|------|
|------------|-5----|
|------------|-5----|
|------------|-3----|


 Section VII
  Q=138
                          C5    B5  A5  C5  D5
  E Q  H    E   E Q  H    E   E E E E E E E E
|-------------|-------------|-----------------|
|-------------|-------------|-----------------|
|-------------|-----------5-|---4---2---5---7-|
|-5---------5-|-5---------5-|---4---2---5---7-|
|-5---------5-|-5---------3-|---2---0---3---5-|
|-3---------3-|-3-----------|-----------------|
|
| Gtr II
| E Q  H    E   E Q  H    E   E E E E E E E E
|-------------|-------------|-----------------|
|-------------|-------------|-----------------|
|-------------|-----------3-|---2---0---3---5-|
|-3---------3-|-3-----------|-----------------|


    B5  C5         D5      G5
  E E E E  E       E        E       E
|-------------------------------------------|
|-------------------------------------------|
|---4---5----------7------------------------|
|---4---5----------7--------5---------------|
|---2---3----------5--------5---------------|
|---------------------------3---------------|
|
| E E E E  E       E        E       E
|-------------------------------------------|
|-------------------------------------------|
|---2---3----------5------------------------|
|---------------------------3---------------|
|
| Gtr III
|          |------5------|  |------5------|
| H        S  S  S    S  S  S  S  S    S  S
|-------------------------------------12-14-|
|--------------------------12-13-15---------|
|---------------11---12-14------------------|
|---------12-14-----------------------------|
|-------------------------------------------|
|-------------------------------------------|


                                                       C5
   E  Q        H           E    E  Q        H           E
|----------------------------|----------------------------|
|----------------------------|----------------------------|
|----------------------------|--------------------------5-|
|--5-----------------------5-|--5-----------------------5-|
|--5-----------------------5-|--5-----------------------3-|
|--3-----------------------3-|--3-------------------------|
|
|  E  Q        H           E    E  Q        H           E
|----------------------------|----------------------------|
|----------------------------|----------------------------|
|----------------------------|----------------------------|
|--3-----------------------3-|--3-----------------------3-|
|
|  E  S  S  E  E  E  E  E  E    E  S  S  E  E  E  E  E  E
|-15-15-14-15-15-12-------12-|----------------------------|
|-------------------15-13----|-15-15-14-15-15-12-------12-|
|----------------------------|-------------------14-12----|
|----------------------------|----------------------------|
|----------------------------|----------------------------|
|----------------------------|----------------------------|


     B5   D5   C5   D5     B5   C5      G5
   E E  E E  E E  E E    E E  E E  E  E  E  E
|---------------------|-----------------------||
|---------------------|-----------------------||
|----4----7----5----7-|----4----5-----5-------||
|----4----7----5----7-|----4----5-----5--5----||
|----2----5----3----5-|----2----3-----3--5----||
|---------------------|------------------3----||
|
|  E E  E E  E E  E E    E E  E E  E  E  E  E
|---------------------|-----------------------||
|---------------------|-----------------------||
|----2----5----3----5-|----2----3-----3-------||
|---------------------|------------------3----||
|
|  ~~~~~~~~~~~~~~~~~
|  Q    Q    Q    Q      Q    Q    E  E  Q
|---------------------|-----------------------||
|---------------------|-12--------------------||
|-14---12---11---14---|------14---12-11-12\---||
|---------------------|-----------------------||
|---------------------|-----------------------||
|---------------------|-----------------------||


  N.C.
  Gtr II
  H    H      H    Q  Q    Q       Q       Q       Q
|-----------|------------|----------------------------------|
|-----------|------------|----------------------------------|
|-5---------|-0-------2--|----------------------------------|
|------0----|------2-----|-0-------2-------3-------4--------|
|
| Gtr III
| W           W            S S S S S S S S S S S S S S S S
|-----------|------------|----------------------------------|
|-----------|------------|----------------------------------|
|-----------|------------|----------------------------------|
|-----------|------------|-2p0-2p0-4p0-4p0-5p0-5p0-6p0-6p0--|
|-----------|------------|----------------------------------|
|-----------|------------|----------------------------------|


  Q       Q         Q      Q    H      H        H       Q  Q
|-----------------------------|--------------|----------------|
|-----------------------------|--------------|----------------|
|-0-----------------5---------|-5------------|--0----------2--|
|---------0----------------5--|--------0-----|----------2-----|
|
| S S S S S S S  S  E  S S Q    Q.   E Q  Q     Q.   E  Q  Q
|-----------------------------|--------------|--9----7--------|
|-----------------------------|-7----8-------|---------10-----|
|-----6-7-9-8-9-10-11-11p7----|--------7-----|-------------7--|
|-7-9----------------------7--|-----------9--|----------------|
|-----------------------------|--------------|----------------|
|-----------------------------|--------------|----------------|
|
| Gtr IV
| W                             W               Q.   E  Q  Q
|-----------------------------|--------------|----------------|
|-----------------------------|--------------|-10----8--7-----|
|-----------------------------|--------------|----------------|
|-----------------------------|--------------|-------------9--|
|-----------------------------|--------------|----------------|
|-----------------------------|--------------|----------------|


   Q   Q   Q   Q     Q           Q           Q           Q
|-----------------|------------------------------------------||
|-----------------|------------------------------------------||
|-----------------|--0-----------2-----------4-----------5---||
|--0---2---3---4--|------------------------------------------||
|
|  Q   Q   Q   Q     S  S  S  S  S  S  S  S  S  S  S  S  Q
|-----------------|------------------------------------------||
|-----------------|-------------------------------------15\--||
|-/9--11--12--13--|----------11-12----11-12-14-11-12-14------||
|-----------------|-11-12-14-------14------------------------||
|-----------------|------------------------------------------||
|-----------------|------------------------------------------||
|
|  Q   Q   Q   Q     W
|-----------------|------------------------------------------||
|-----------------|------------------------------------------||
|-12--11---9------|------------------------------------------||
|-------------12--|------------------------------------------||
|-----------------|------------------------------------------||
|-----------------|------------------------------------------||


  E  E    E  Q        Q       E   E  E    E  Q        Q       E
|-------------------------------|-------------------------------|
|-------------------------------|-------------------------------|
|-6---------------------------5-|-6---------------------------5-|
|------------0--------2---------|------------0--------2---------|
|
| E  S S  E  S  S  E  S  S  E E   E  S S  E  S  S  E  S  S  E E
|-------------------------------|-------------------------------|
|-------------------------------|-------------------------------|
|-------------------------------|-------------------------------|
|---10-9-10-11-10-11-12-11-12---|---10-9-10-11-10-11-12-11-12---|
|-------------------------------|-------------------------------|
|-------------------------------|-------------------------------|


  E  E     E E E  E     E E    E     E     E     E     E     E     Q
|---------------------------|----------------------------------------------|
|---------------------------|----------------------------------------------|
|-6----------5-6----------5-|--6-----5-----6-----5-----6-----5-----5-------|
|---------------------------|----------------------------------------------|
|
| E  S  S  E E E  S  S  E E    S  S  S  S  S  S  S  S  S  S  S  S  E  S  S
|---------------------------|-------------------------------14-15-17-12-14-|
|---13-12-13-----13-12-13---|-------------------------15-17----------------|
|---------------------------|----------------14-16-17----------------------|
|---------------------------|-------14-16-17-------------------------------|
|---------------------------|-15-17----------------------------------------|
|---------------------------|----------------------------------------------|


 Section VIII
  G5                                                   C5
  Gtr I
   E  Q        H           E    E  Q        H           E
   |                       |    |                       |
   /                       /    /                       /

  Gtr II
   E  Q        H           E    E  Q        H           E
|----------------------------|----------------------------|
|----------------------------|----------------------------|
|----------------------------|--------------------------3-|
|--3-----------------------3-|--3-------------------------|
|
|  E  S  S  E  E  E  E  E  E    E  S  S  E  E  E  E  E  E
|-15-15-14-15-15-12-------12-|----------------------------|
|-------------------15-13----|-15-15-14-15-15-12-------12-|
|----------------------------|-------------------14-12----|
|----------------------------|----------------------------|
|----------------------------|----------------------------|
|----------------------------|----------------------------|


     B5   A5   C5   D5     B5   C5   D5 G5
   E E  E E  E E  E E    E E  E E  E  E  E  E       E  Q        H           E
     |    |    |    |      |    |     |  |          |                       |
     /    /    /    /      /    /     /  /          /                       /

   E E  E E  E E  E E    E E  E E  E  E  E  E       E  Q        H           E
|---------------------|--------------------------|-----------------------------|
|---------------------|--------------------------|-----------------------------|
|----2----0----3----5-|----2----3-----5----------|-----------------------------|
|---------------------|------------------3-------|--3-----------------------3--|
|
|  W                     H         Q     E  S  S    E  S  S  E  E  E  E  E  E
|---------------------|--------------------12-14-|-15-15-14-15-15-12-------12--|
|---------------------|--------------------------|-------------------15-13-----|
|---------------------|--------------------------|-----------------------------|
|---------------------|--------------------------|-----------------------------|
|---------------------|--------------------------|-----------------------------|
|---------------------|--------------------------|-----------------------------|
|
| Gtrs IV, V
|  Q    Q    Q    Q      Q    Q    E  E  Q          W
|---------------------|--3-----------------------|-----------------------------|
|--7----5----3----7---|-12----5----7--5--7-------|-----------------------------|
|-14---12---11---14---|------12---14-12-14-------|-----------------------------|
|---------------------|--------------------------|-----------------------------|
|---------------------|--------------------------|-----------------------------|
|---------------------|--------------------------|-----------------------------|


  G5                      C5      B5   A5   C5   D5     C5   B5   D5   C5
   E  Q        H           E    E E  E E  E E  E E    E E  E E  E E  E E
   |                       |      |    |    |    |      |    |    |    |
   /                       /      /    /    /    /      /    /    /    /

   E  Q        H           E    E E  E E  E E  E E    E E  E E  E E  E E
|----------------------------|---------------------|---------------------|
|----------------------------|---------------------|---------------------|
|--------------------------3-|----2----0----3----5-|----3----2----5----3-|
|--3-------------------------|---------------------|---------------------|
|
|  E  S  S  E  E  E  E  E  E    W                     W
|----------------------------|---------------------|---------------------|
|-15-15-14-15-15-12-------12-|---------------------|---------------------|
|-------------------14-12----|---------------------|---------------------|
|----------------------------|---------------------|---------------------|
|----------------------------|---------------------|---------------------|
|----------------------------|---------------------|---------------------|
|
|  W                            Q    Q    Q    Q      Q    Q    Q    Q
|----------------------------|---------------------|--3--------------3---|
|----------------------------|--7----5----3----7---|-12----7----5---12---|
|----------------------------|-14---12---11---14---|------14---12--------|
|----------------------------|---------------------|---------------------|
|----------------------------|---------------------|---------------------|
|----------------------------|---------------------|---------------------|


     B5   A5   C5   D5     C5   B5   D5   C5
   E E  E E  E E  E E    E E  E E  E E  E E
     |    |    |    |      |    |    |    |
     /    /    /    /      /    /    /    /

   E E  E E  E E  E E    E E  E E  E E  E E
|---------------------|---------------------|
|---------------------|---------------------|
|----2----0----3----5-|----3----2----5----3-|
|---------------------|---------------------|
|
|  W                     W
|---------------------|---------------------|
|---------------------|---------------------|
|---------------------|---------------------|
|---------------------|---------------------|
|---------------------|---------------------|
|---------------------|---------------------|
|
|  Q    Q    Q    Q      Q    Q    Q    Q
|---------------------|--3--------------3---|
|--7----5----3----7---|-12----7----5---12---|
|-14---12---11---14---|------14---12--------|
|---------------------|---------------------|
|---------------------|---------------------|
|---------------------|---------------------|


        A5         B5         D5         C5
   E     E    E     E    E     E    E     E
         |          |          |          |
         /          /          /          /

   E     E    E     E    E     E    E     E
|----------------------------------------------|
|----------------------------------------------|
|--------0----------2----------5----------3----|
|----------------------------------------------|
|
|  S  S  S S  S  S  S S  S  S  S S  S  S  S S
|----------------------------------------------|
|-10h12p10-0-10h12p10-0-10h12p10-0-10h12p10-0--|
|----------------------------------------------|
|----------------------------------------------|
|----------------------------------------------|
|----------------------------------------------|
|
|  Q          Q          Q          Q
|-------------5----------3---------------------|
|--7---------13---------12----------5----------|
|-14-------------------------------12----------|
|----------------------------------------------|
|----------------------------------------------|
|----------------------------------------------|


        A5         B5         D5         C5
   E     E    E     E    E     E    E     E
         |          |          |          |
         /          /          /          /

   E     E    E     E    E     E    E     E
|---------------------------------------------|
|---------------------------------------------|
|--------0----------2----------5----------3---|
|---------------------------------------------|
|
|  S  S  S S  S  S  S S  S  S  S S  S  S  S S
|---------------------------------------------|
|-10h12p10-0-10h12p10-0-10h12p10-0-10h12p10-0-|
|---------------------------------------------|
|---------------------------------------------|
|---------------------------------------------|
|---------------------------------------------|
|
|  Q          Q          Q          Q
|-------------5----------3--------------------|
|--7---------13---------12----------5---------|
|-14-------------------------------12---------|
|---------------------------------------------|
|---------------------------------------------|
|---------------------------------------------|


        B5         C5         B5         C5           B5          D5                G5
   E     E    E     E    E     E    E     E      E     E     E     E     E     E     E E
         |          |          |          |            |           |           |     |
         /          /          /          /            /           /           /     /

   E     E    E     E    E     E    E     E      E     E     E     E     E     E     E E
|---------------------------------------------|--------------------------------------------*|
|---------------------------------------------|--------------------------------------------*|
|--------2----------3----------2----------3---|--------2-----------5-----------5-----------*|
|---------------------------------------------|--------------------------------------3-----*|
|
|  S  S  S S  S  S  S S  S  S  S S  S  S  S S    S  S  S  S  S  S  S  S  S  S  S  S  E E
|---------------------------------------------|-------------------------------12-14-15-----*|
|-10h12p10-0-10h12p10-0-10h12p10-0-10h12p10-0-|----------------------12-13-15--------------*|
|---------------------------------------------|-------------11-12-14-----------------------*|
|---------------------------------------------|-------12-14--------------------------------*|
|---------------------------------------------|-14-15--------------------------------------*|
|---------------------------------------------|--------------------------------------------*|
|
|  Q          Q          Q          Q            Q           Q           E     E     E E
|---------------------------------------------|-------------------------------------15-----*|
|--7----------5----------7----------5---------|--7-----------5----------------15-----------*|
|-14---------12---------14---------12---------|-14----------12-----------------------------*|
|---------------------------------------------|--------------------------------------------*|
|---------------------------------------------|--------------------------------------------*|
|---------------------------------------------|--------------------------------------------*|


Duration Legend
---------------
W - whole; H - half; Q - quarter; E - 8th; S - 16th; T - 32nd; X - 64th; a - acciaccatura
+ - note tied to previous; . - note dotted; .. - note double dotted
Uncapitalized letters represent notes that are staccato (1/2 duration)
Irregular groupings are notated above the duration line
Duration letters will always appear directly above the note/fret number it represents the
duration for.  Duration letters with no fret number below them represent rests.  Multi-
bar rests are notated in the form Wxn, where n is the number of bars to rest for.  Low
melody durations appear below the staff

Tablature Legend
----------------
 h   - hammer-on
 p   - pull-off
 b   - bend
 pb  - pre-bend
 r   - bend release (if no number after the r, then release immediately)
 /\  - slide into or out of (from/to "nowhere")
 s   - legato slide
 S   - shift slide
  - natural harmonic
[n]  - artificial harmonic
n(n) - tapped harmonic
 ~   - vibrato
 tr  - trill
 T   - tap
 TP  - trem. picking
 PM  - palm muting
\n/  - tremolo bar dip; n = amount to dip
 \n  - tremolo bar down
 n/  - tremolo bar up
/n\  - tremolo bar inverted dip
 =   - hold bend; also acts as connecting device for hammers/pulls
 <>  - volume swell (louder/softer)
 x   - on rhythm slash represents muted slash
 o   - on rhythm slash represents single note slash

Misc Legend
-----------
 |  - bar
||  - double bar
||o - repeat start
o|| - repeat end
*|  - double bar (ending)
 :  - bar (freetime)
 $  - Segno
 &  - Coda
Tempo markers -  = BPM(8/16=s8/s16), where s8 = swing 8ths, s16 = swing 16ths
Добавлено: 09.03.2012
Другие материалы по этой песне:

Страница создана 09.03.2012
http://primanota.ru/trans-siberian-orchestra/a-mad-russians-christmas-chords.htm
Привет, Гость.
Предлагаем пройти революционный курс по гитаре.
Подарок от PrimaNota.Ru, забирай!