PrimaNota.ru - самый крупный в мире бесплатный архив песенных текстов, аккордов, табулатур и нот


Trans-siberian Orchestra - Lost Christmas Eve - таба, бас-таба, видео

Регистрация Запомнить меня
Войти через:  Facebook Google Twitter Vk Yandex Mail.ru

Trans-siberian Orchestra - Lost Christmas Eve - таба, бас-таба, видео

Печатать
Просмотров: 84
Авторы музыки: Al Pitrelli, Paul O’Neill
Авторы текста: Paul O’Neill
The Lost Christmas Eve, Song 2.  This is a very cool song.
(Standard Tuning)
Intro
E-------------------|
B-------------------|
G-7-6-4-7-6-4-7-6-4-|
D-------------------|
A-------------------|
E-------------------|
This repeats a lot its acc. Guitar or elec acc.
(.48)
E-----------------------------------------------|
B-----------------------------------------------|
G-----------------------------------------------|
D-2-2-2-2-2-2-2-4-4-4-4-4-4-4-2-2-2-2-2-2-2-4-4-|
A-2-2-2-2-2—2-2-4-4-4-4-4-4-4-2-2-2-2-2-2-2-4-4-|
E-0-0-0-0-0-0-0-2-2-2-2-2-2-2-0-0-0-0-0-0-0-2-2-|
    ***********   ***********   ***********
E-------------------|
B-------------------|
G-7-6-4-7-6-4-7-6-4-|
D-------------------|
A-------------------|
E-------------------|
This goes on until..
(1.52)
E-----------------------------------------------|
B-----------------------------------------------|
G-----------------------------------------------|
D-2-2-2-2-2-2-2—4-4-4-4-4-4-4-2-2-2-2-2-2-2-4-4-|
A-2-2-2-2-2-2-2-4-4-4-4-4-4-4-2-2-2-2-2-2-2-4-4-|
E-0-0-0-0-0-0-0-2-2-2-2-2-2-2-0-0-0-0-0-0-0-2-2-|
    ***********   ***********   ***********
E-------------------|
B-------------------|
G-7-6-4-7-6-4-7-6-4-|
D-------------------|
A-------------------|
E-------------------|
Repeats a lot until..
(3.13)
E---------------------------------------------------------|
B---------------------------------------------------------|
G---------------------------------------------------------|
D-5-5-5-5-5-5-5-7-7-7-7-7-7-7-5-5-5-5-5-5-5-7-7-7-7-7-7-7-|
A-5-5-5-5-5-5—5-7-7-7-7-7-7-7-5-5-5-5-5-5-5-7-7-7-7-7—7-7-|
E-3-3-3-3-3-3-3-5-5-5-5-5-5-5-3-3-3-3-3-3-3-5-5-5-5-5-5-5-|
    ***********   ***********   ***********   ***********
(3.29)
E---------------|
B---------------|
G-4-4-4-4---2---|
D-4-4-4-4-5-2---|  x4
A-2-2-2-2-5-0---|
E---------3-----|


(4.00)
E-------------------------------------------------------|
B-------------15-14-------------------------------------|
G-16~16~16~16~------16-14----------------------------14-|
D-------------------------17-16-14----------14-16-17----|
A----------------------------------14-16-17-------------|
E-------------------------------------------------------|

E-------------------------------------------|
B-15-14-------------------------------------|
G-------16-14----------------------------14-|
D-------------17-16-14----------14-16-17----|
A----------------------14-16-17-------------|
E-------------------------------------------|
Repeat these 2 bars once then..
(4.16)
E-------------------------------------------|
B-15-12-15-14b15r12----15-12-15-14b15r12----|
G-------------------14-------------------14-|
D-------------------------------------------|
A-------------------------------------------|
E-------------------------------------------|

E-14----14-13b14-------14----14-15b17r14-|
B----15----------15-14----15-------------|
G----------------------------------------|
D----------------------------------------|
A----------------------------------------|
E----------------------------------------|

E-------------------|
B-------------------|
G-7-6-4-7-6-4-7-6-4-|
D-------------------|
A-------------------|
E-------------------|
(5.15)
E----------------------------|
B-----------------------7--3-|
G-7-6-4-7-6-4-7-6-4-4-6----4-|
D--------------------------4-|
A--------------------------2-|
E----------------------------|

-End

Key
*=Palm mute
b=bend
r=release
~=vibro

Hope you enjoi playing this song, its very good.

Upcoming Tabs*
1. Rest of Lost Christmas Eve CD
2. Finish up Christmas Eve and Other Stories CD
3. Finish Christmas Attic CD
4. Possibly revise a few song on Beethoven CD
5. Revise anything else
6. Get ready to tab the upcoming CD, "NightCastle"

Merry Christmas All
Добавлено: 11.03.2012
Другие материалы по этой песне:
  • Аккорды и текст

Страница создана 11.03.2012
http://primanota.ru/trans-siberian-orchestra/lost-christmas-eve-chords.htm
Привет, Гость.
Предлагаем пройти революционный курс по гитаре.
Подарок от PrimaNota.Ru, забирай!