PrimaNota.ru - самый крупный в мире бесплатный архив песенных текстов, аккордов, табулатур и нот


Trans-siberian Orchestra - Embers - таба, видео

Регистрация Запомнить меня
Войти через:  Facebook Google Twitter Vk Yandex Mail.ru

Trans-siberian Orchestra - Embers - таба, видео

Печатать
Просмотров: 39
Авторы музыки: Ireland Wilde O'Neill, Paul O’Neill

It's not 100% complete, it's about halfway done. And thanks to my guitar teachers who helped tab this
Tuning: EGDGBE

e:---------------------------------------------3--------------5---------------3---------------5--|
b:-0-1-0-1/3-1-0-----------0-1-0-1/3-------5---5----------7---7-----------5---5-----------7------|
g:----------------0-----0----------------5---5---5------7---7---7-------5---5---5-------7---7----|   X2
d:-0-2-0-2-4-2-0--0---0----0-2-0-2/4---------------5--------------7---------------5--------------|
g:-0-0-0-0-0-0-0--0-0------0-0-0-0-0--0--------------0---------------0---------------0-----------|
E:-----------------------------------------------------------------------------------------------|

e:--3------   e:--------      e:-5h7p5-----     e:--------     e:-5h7p5------|
b:--------3   b:-------3      b:-----------     b:-------3     b:------------|
g:------4--   g:-----4--  X3  g:--------7-6 X4  g:-----4-- X4  g:-------7-6--| X4
d:----5----   d:---5----      d:-----------     d:---5----     d:------------|
g:--0------   g:-0------      g:-0---------     g:-0------     g:-0----------|
E:---------   E:--------      E:-----------     E:--------     E:------------|

e:------------------     e:------------------3---2---0---0----------------------------------|
b:---8---7---5---3--     b:---------3----------0---0---0-3---0-------0-------0-1-0-------0--|
g:------------------ X3  g:-----5-----5 ---------------------0---0-0-0---0-0-0-0-0---0-0-0--|  X2
d:---9---7---5---4--     d:---5---5-----5--2-0---2---0---0---0--0-0--0--0-0--0-2-0--0-0--0--|
g:-0---0---0---0---0     g:-0--------------------------------0-------0-------0-0-0-------0--|
E:------------------     E:-----------------------------------------------------------------|

e:--------------------------------------------------------| 1st Time: e:-----------------|
b:----------6---6-------------5---5-------------4---4-----|           b:--------3---3----|
g:--------7---7---7---------6---6---6---------5---5---5---| X2        g:------4---4---4--|
d:------8-----------8-----7-----------7-----6-----------6-|           d:-----5----------5|
g:--0-0---------------0-0---------------0-0---------------|           g:-0-0-------------|
E:--------------------------------------------------------|           E:-----------------|

The 2nd Time slow down at the 654 area and don't play the final 6

e:-------------------|
b:-0-1-0-1/3-1-0-----|
g:------------------0|
d:-0-2-0-2/4-2-0----0|
g:-0-0-0-0-0-0-0----0|
E:-------------------|
Добавлено: 19.11.2015
Другие материалы по этой песне:
  • Аккорды и текст

Страница создана 19.11.2015
http://primanota.ru/trans-siberian-orchestra/embers-chords.htm
Привет, Гость.
Предлагаем пройти революционный курс по гитаре.
Подарок от PrimaNota.Ru, забирай!