PrimaNota.ru - самый крупный в мире бесплатный архив песенных текстов, аккордов, табулатур и нот


Traditional Irish - The Marsh Of Rhuddlan - таба, видео

Регистрация Запомнить меня
Войти через:  Facebook Google Twitter Vk Yandex Mail.ru

Traditional Irish - The Marsh Of Rhuddlan - таба, видео

Печатать
Просмотров: 97
Уроки эстрадного вокала в Санкт-Петербурге
-------------------------------------------------------------------------------
                             Traditional Irish/Celtic Lament
-------------------------------------------------------------------------------
Tabbed by: ThorChicken
E-mail: privateawesome00@gmail.com

Tuning: Standard

e|----------------0-0-0--5-5-5--3-0-0--5-0---------0-------------------------|
B|----------0-1-3--------6-6-6------1------1-3-1-3---0-1-0-------------------|
G|-----2--2-------------------------------------------------2----------------|
D|---2----------------2--0-------------3-------------------------------------| x2
A|-----0----------0-3-----------3--------------3------------0----------------|
E|---------------------------------------------------3-----------------------|

e|---0--5-5-5--3-0-0--5-5-5--3-0-0--5-0---------0-------------5--------------|
B|--------------------------------------1-3-1-3----0-1-0---------------------|
G|------5------4------5------4----------------------------2------------------|
D|----------------------------------3----------------------------------------|
A|------0-------------0---------------------3-2-0---------0------------------|
E|-------------0-------------0---------------------3-------------------------|


Chords are: Verse: Am, Dm, C, F, C, G, Am. Chorus: Am, Em, Am, Em, F, C, G, Am, G, Am 
{Note: End on a Barre chord Am:
e|--5--------|
B|--5--------|
G|--5--------|
D|--5--7-----|
A|--5--7-----|
E|--5--------|

Thanks for playing!

************************************
Добавлено: 23.07.2015
Другие материалы по этой песне:
  • Аккорды и текст

Страница создана 23.07.2015
http://primanota.ru/traditional-irish/marsh-of-rhuddlan-chords.htm
Привет, Гость.
Предлагаем пройти революционный курс по гитаре.
Подарок от PrimaNota.Ru, забирай!