PrimaNota.ru - самый крупный в мире бесплатный архив песенных текстов, аккордов, табулатур и нот


Traditional Irish - Caras Farewell - таба, видео

Регистрация Запомнить меня
Войти через:  Facebook Google Twitter Vk Yandex Mail.ru

Traditional Irish - Caras Farewell - таба, видео

Печатать
Просмотров: 93
-------------------------------------------------------------------------------
                             Cara's Farewell - Traditional Russian
-------------------------------------------------------------------------------
Tabbed by: ThorChicken
E-mail: Privateawesome00@gmail.com

Tuning: Standard

e|-------------------------0-1-0---------------------------------------------|
B|---1-0---0-0-----------1-------3-1-0---0-0----------1-3--------------------|
G|---2---2-0-0-0-2--2--2-----------2---2-0-0-0-2--2-2------------------------|
D|---2-----0-0---2--2--------------2-----0-0---2--2--------------------------|
A|---0-----2-2---0--0--------------0-----2-2---0--0--------------------------|
E|---------3-3---------------------------3-3---------------------------------|

e|---0-0-0-3-3-3--------0-0--------------------------------------------------|
B|---1-----0-0----1-1-1-0-0---3-1-0-----0--------------1-3-------------------|
G|---0-----0-0----2-----0-0---------2-2---0--2--2--2-2-----------------------|
D|---2-----0-0----2-----2-2------------------2--2--2-------------------------|
A|---3------------0--------------------------0--0--0-------------------------|
E|---------------------------------------------------------------------------|

e|---0-0-0-3-3--------0-0--3-1-0-------------------0-------------------------|
B|---1-----0----1-1-1-0-0--1-----3-3-1-0-----1-1-3----1-0---0-0--------------|
G|---0-----0----2-----0-0--0-----0-0------2-0---------2---2-0-0-0-2--2-------|
D|---2-----0----2-----2-2--2-----0-0------2-----------2-----0-0---2--2-------|
A|---3----------0----------3-----2-2------0-----------0-----2-2---0--0-------|
E|-------------------------------3-3------------------------3-3--------------|

Thanks for playing!
{Note: The chords are Am, G, Am, G, Am, C, G, Am, Em, G, Am, Em7, Am, C, G, Am, Em, C, G, Am, G, Am}

************************************
Добавлено: 23.07.2015
Другие материалы по этой песне:
  • Аккорды и текст

Страница создана 23.07.2015
http://primanota.ru/traditional-irish/caras-farewell-chords.htm
Привет, Гость.
Предлагаем пройти революционный курс по гитаре.
Подарок от PrimaNota.Ru, забирай!