PrimaNota.ru - самый крупный в мире бесплатный архив песенных текстов, аккордов, табулатур и нот


Tower Of Power - Soul With A Capital S - бас-таба, видео

Регистрация Запомнить меня
Войти через:  Facebook Google Twitter Vk Yandex Mail.ru

Tower Of Power - Soul With A Capital S - бас-таба, видео

Печатать
Просмотров: 277
Уроки эстрадного вокала в Санкт-Петербурге
Intro 1
/D - /F - /As - /B - /A



Intro 2
G|-----------------------------------------------------|
D|---------------10-10---------------------------------|
A|-5--x5--0-10-0-------3-0-3-4-5--x5-----------3-0-3-4-|	2x  
E|------------------------------------x3-3-2-2---------|

Verse
G|-------------------------|
D|-------------------------|
A|-5--x5-----------3-0-3-4-|	12x  
E|--------x3-3-2-2---------|

G|-------------------------------------------|
D|------------4-4------------------5-5-------|
A|-------x4-4-----x4----------x5-5-----x5----|	  
E|-2--x2-------------2--3--x3-------------3--|

G|----------------------------------------------------|
D|------------4-4------------------7-7----------------|
A|-------x4-4-----x4----------x7-7-----x7-------------|	  
E|-2--x2-------------2--5--x5-------------5--5-5-5-55-|

Chorus
G|-----------------------------------------------------|
D|---------------10-10---------------------------------|
A|-5--x5--0-10-0-------3-0-3-4-5--x5-----------3-0-3-4-|	3x  
E|------------------------------------x3-3-2-2---------|

G|-----------------------------|
D|---------------10-10---------|
A|-5--x5--0-10-0-------3-0-3-4-|	  
E|-----------------------------|

Intro 2, Verse, Chorus, Intro 2

Verse, Chorus, Intro 2, Chorus, Intro 2, Intro 1

Intro 2 (till end)
Добавлено: 17.06.2012
Другие материалы по этой песне:

Страница создана 19.04.2012
http://primanota.ru/tower-of-power/soul-with-a-capital-s-chords.htm
Привет, Гость.
Предлагаем пройти революционный курс по гитаре.
Подарок от PrimaNota.Ru, забирай!