PrimaNota.ru - самый крупный в мире бесплатный архив песенных текстов, аккордов, табулатур и нот


Tower Of Power - Funk The Dumb Stuff - бас-таба, видео

Регистрация Запомнить меня
Войти через:  Facebook Google Twitter Vk Yandex Mail.ru

Tower Of Power - Funk The Dumb Stuff - бас-таба, видео

Печатать
Просмотров: 231
Уроки эстрадного вокала в Санкт-Петербурге
Intro
G|--------------------------------------------------------|
D|-----10-------13------------10-------12-------12--------|
A|-8-8----11-11----10-8---8-8----11-11----10-10----10-8---|	 2x 
E|------------------------------------------------------1-|

Couplet

2x Intro

G|--------------------------------------------|
D|-----10-----6----------10-----5-----5-----3-|
A|-8-8----5-5---3----8-8----3-3---3-3---3-----|	  
E|----------------1-----------------------1---|

G|------------------------------------------------|
D|-------12-----8------------12-----7-----7-------|
A|-10-10----7-7---5----10-10----5-5---5-5---5-----|	  
E|------------------3-------------------------3-2-|

G|---------------------|
D|-----10-----6--------|
A|-8-8----5-5---3------|	  
E|----------------1--1-|

Intro 2x, Couplet, Intro

Bridge
G|---------------------------------|
D|--------------------10-----6-----|
A|-3-2-1--0-4-32--8-8----5-5---3---|  3x   
E|-------------------------------1-|

G|------------------------------------------|
D|----------------------10-------12---------|
A|-3--2--1-0-4-32---8-8----11-11----10-8----|	  
E|----------------------------------------1-|

Intro 2x 

Intro 2x, Couplet, Intro 2x, Couplet, 

Intro 2x, Bridge, Intro 4x

Funk the dumb stuff! 8x => F
Добавлено: 12.06.2012
Другие материалы по этой песне:
  • Аккорды и текст

Страница создана 12.06.2012
http://primanota.ru/tower-of-power/funk-the-dumb-stuff-chords.htm
Привет, Гость.
Предлагаем пройти революционный курс по гитаре.
Подарок от PrimaNota.Ru, забирай!