PrimaNota.ru - самый крупный в мире бесплатный архив песенных текстов, аккордов, табулатур и нот


Tool - Part Of Me - аккорды и текст, таба, бас-таба, видео

Регистрация Запомнить меня
Войти через:  Facebook Google Twitter Vk Yandex Mail.ru

Tool - Part Of Me - аккорды и текст, таба, бас-таба, видео

Печатать
Просмотров: 269
Part Of Me
Tool
		   Song: Part of Me
Artist: Tool
Album: Opiate
Transcribed by: Taylor Skidmore (tskid@exfido.com)

Dropped D tuning!


Intro and part of chorus:
----------------------------------------------------
----------------------------------------------------
---------------5-X-X-5------------------------------
--2-X-X-2-XXXX-5-X-X-5-XXXX-2-X-X-2-XXXX-5-4-4-4----
--2-X-X-2-XXXX-3-X-X-3-XXXX-2-X-X-2-XXXX-5-4-4-4----
--2-X-X-2-XXXX---------XXXX-2-X-X-2-XXXX-5-4-4-4----

Main riff (played in various places, muted during verse):
----------------------------------------------------
----------------------------------------------------
----------------------------------------------------
-6-5-0-3--6-5-0-3-3-3-------------------------------
-6-5-0-3--6-5-0-3-3-3-------------------------------
-6-5-0-3--6-5-0-3-3-3-------------------------------

Another riff that is played sometimes:
----------------------------------------------------
----------------------------------------------------
-------5-------5-------5/7--------------------------
-X-2-X-5-X-2-X-5-X-2-X-5/7--------------------------
-X-2-X-3-X-2-X-3-X-2-X-3/5--------------------------
-X-2-X---X-2-X---X-2-X------------------------------


-Taylor (tskid@exfido.com)     
Добавлено: 27.08.2013
Другие материалы по этой песне:

Страница создана 11.03.2012
http://primanota.ru/tool/part-of-me-chords.htm
Привет, Гость.
Предлагаем пройти революционный курс по гитаре.
Подарок от PrimaNota.Ru, забирай!