PrimaNota.ru - самый крупный в мире бесплатный архив песенных текстов, аккордов, табулатур и нот


Third Eye Blind - London - аккорды и текст, таба, драм-таба, видео

Регистрация Запомнить меня
Войти через:  Facebook Google Twitter Vk Yandex Mail.ru

Third Eye Blind - London - аккорды и текст, таба, драм-таба, видео

Печатать
Просмотров: 180
Авторы: Kevin Cadogan, Stephan Jenkins

London
Third Eye Blind
		   e: 	Thu, 23 Apr 1998 15:15:33 -0700


Song: London
Artist: Third Eye Blind
Album: Third Eye Blind on Elektra records
Lyrics and music: Stephen Jenkins
Tabbed by: Angell Tsang "a-cute-angle@mailexcite.com"

Sorry if the "fig"s confuse you.....

Open Tuning: DADF#AD

Intro
-------------------------------------------------------------------------
------------------------------------------------13b----------------------
----8b-----------11b---------------8b------------------------------------
-9-----7-7-9/12--------7-7--7/9-------7-7--9/12------5\4-2-4-------------
-9-----7-7-9/12--------7-7--7/9-------7-7--9/12------5\4-2-4-------------
-9-----7-7-9/12--------7-7--7/9-------7-7--9/12------5\4-2-4-------------


this is fig 1
-------------------------------------------------------------------------
-------------------------------------------------------------------------
----8b-----------11b---------------8b------------11b---------------------
-9-----7-7-9/12--------7-7--7/9-------7-7--9/12------5\4-2-0-------------
-9-----7-7-9/12--------7-7--7/9-------7-7--9/12------5\4-2-0-------------
-9-----7-7-9/12--------7-7--7/9-------7-7--9/12------5\4-2-0-------------


this is fig 2
-------------------------------------------------------------------------
-------------------------------------------------------------------------
-------------------------------------------------------------------------
-9--9---7-7-7--9/12--12---7-7-7--7/9--9---7-7-7---9/12--12---17\16-14-12-
-9--9---7-7-7--9/12--12---7-7-7--7/9--9---7-7-7---9/12--12---17\16-14-12-
-9--9---7-7-7--9/12--12---7-7-7--7/9--9---7-7-7---9/12--12---17\16-14-12-

Through the satellites, I fight with you,
That local brew is spillin',
I know just how you spend your time.
I want to get my hands on him,



this is fig 3
-------------------------------------------------------------------------
-------------------------------------------------------------------------
-------------------------------------------------------------------------
-9--9---7-7-7--9/12--12---7-7-7--7/9--9---7-7-7---9/12--12-----5\4-2-4---
-9--9---7-7-7--9/12--12---7-7-7--7/9--9---7-7-7---9/12--12-----5\4-2-4---
-9--9---7-7-7--9/12--12---7-7-7--7/9--9---7-7-7---9/12--12-----5\4-2-4---

Somebody's party in a London flat,
You're where it's at and I know,
You wanna see me lose my mind,


this is fig 4
-------------------------------------------------------------------------
-------------------------------------------------------------------------
----8b-----------11b---------------8b------------11b---------------------
-9-----7-7-9/12--------7-7--7/9-------7-7--9/12------5\4-2-4-------------
-9-----7-7-9/12--------7-7--7/9-------7-7--9/12------5\4-2-4-------------
-9-----7-7-9/12--------7-7--7/9-------7-7--9/12------5\4-2-4-------------


play fig 2
I'm tired of chasing after you
the residue is jealous,
See me on the dark side of your mind,
I want to get my hands on him,

play fig 3
To a club that's pounding in the London rain,
The world could end We wouldn't hear it.
I know just what's on your mind,

this is fig 5
-------------------------------------------------------------------------
-------------------------------------------------------------------xxxxxx
-------------------------------------------------------------------xxxxxx
-7-7-7-7-7-7-7-7---5-5-5-5-5-5-5-5---9-9-9-9-9-9-9-9---7-7-7-7-7---xxxxxx
-7-7-7-7-7-7-7-7---5-5-5-5-5-5-5-5---9-9-9-9-9-9-9-9---7-7-7-7-7---xxxxxx
-7-7-7-7-7-7-7-7---5-5-5-5-5-5-5-5---9-9-9-9-9-9-9-9---7-7-7-7-7---xxxxxx
I see the way your face has changed, We're no good for each other,

                                           fig 6 starta here
-------------------------------------------|-----------------------------
-------------------------------------------|-----------------------------
-------------------------------------------|-----------------------------
----7-7-7-7-7-7-7-7---5-5-5-5-5-5-5-5------|-10-10-10-10-10-10-10-10-----
----7-7-7-7-7-7-7-7---5-5-5-5-5-5-5-5------|-10-10-10-10-10-10-10-10-----
----7-7-7-7-7-7-7-7---5-5-5-5-5-5-5-5------|-10-10-10-10-10-10-10-10-----
You tricked me into coming here,  G let go,I don't wanna go to

-------------------------------------------------------------------------
-------------------------------------------------------------------------
-------------------------------------------------------------------------
-12-12-12-12-12-12-12-12----10-10-10-10-10-10-10-10---5-5-5-5-5-5-5-5----
-12-12-12-12-12-12-12-12----10-10-10-10-10-10-10-10---5-5-5-5-5-5-5-5----
-12-12-12-12-12-12-12-12----10-10-10-10-10-10-10-10---5-5-5-5-5-5-5-5----
 London (I told you I don't care) I don't wanna go to London, To live


-------------------------------------------------------------------------
-------------------------------------------------------------------------
-------------------------------------------------------------------------
-10-10-10-10-10-10-10-10------12-12-12-12-12-12-12-12--------------------
-10-10-10-10-10-10-10-10------12-12-12-12-12-12-12-12--------------------
-10-10-10-10-10-10-10-10------12-12-12-12-12-12-12-12--------------------
 there, I don't want to go to London, All your friends

-------------------------------------------------------------------------
-------------------------------------------------------------------------
-------------------------------------------------------------------------
-10-10-10-10-10-10-10-10---------5-5-5-5-5-5-5-5-------------------------
-10-10-10-10-10-10-10-10---------5-5-5-5-5-5-5-5-------------------------
-10-10-10-10-10-10-10-10---------5-5-5-5-5-5-5-5-------------------------
afflicted, I don't want to go to London. She's addicted.


play fig 4

play fig 2
I saw you with him,
I know where you've been,
That nose is broken wide open,
Your way has got me out of line.
I want to get my hands on him.

play fig 3
You're so sick just to make me prove,
It takes a fight to move you,
I know just what's on your mind.

play fig 5
It's been this way a thousand years,
We torture each other.
G why the hell d'you call me here,
When you know,

play fig 6
l don't wanna go to London,
I told you I don't care,
I don't wanna go to London,
To live there,
I don't wanna  go to London,
All your friends afflicted,
I don't wanna go to London.
She's addicted.

bridge
------------------------------------------------------|
------------------------------------------------------|
-----------------------------------------------------.|
-9-9-9-9---10-10-10-10---12-12-12-12---13-13-13-13---.|
-9-9-9-9---10-10-10-10---12-12-12-12---13-13-13-13----|
-9-9-9-9---10-10-10-10---12-12-12-12---13-13-13-13----|
repeat 4x


play fig 6
l don't wanna go to London,
I told you I don't care,
I don't wanna go to London,
'Cause you're not there.
Even when I see you somewhere else in London.

play fig 4     
Добавлено: 27.10.2013
Другие материалы по этой песне:

Страница создана 07.03.2012
http://primanota.ru/third-eye-blind/london-chords.htm
Привет, Гость.
Предлагаем пройти революционный курс по гитаре.
Подарок от PrimaNota.Ru, забирай!