PrimaNota.ru - самый крупный в мире бесплатный архив песенных текстов, аккордов, табулатур и нот


Third Eye Blind - Blinded (When I See You) - текст песни, таба, видео

Регистрация Запомнить меня
Войти через:  Facebook Google Twitter Vk Yandex Mail.ru

Third Eye Blind - Blinded (When I See You) - текст песни, таба, видео

Печатать
Просмотров: 106
Уроки эстрадного вокала в Санкт-Петербурге
Thanks to the other users for tabbing out most of this song. The cprrect tuning really
is FACFAE im going to include what the others have but in addition im including the open
strummed chorus chords as opposed to the simpler power chords. Listen to the song to 
figure out the ryhtym and when to change

Intro/Bridges
E  --13---13---------------------------------13---13-----|
A --13---13---------------------------------13--13-------|
F  --0----0----------------------------------0---0-------|
C --12---12----------------------------------0---0-------|
A --13---12--AT the End this is thrown in---12--12-------|
F  ------------------------------------------14--12------|

Verse

E-------------------------------------------5--3--1--3------|
A-------------------------------------------5--3--1--3------|
F-------------------------------------------4--2--0--2------|
C---9------7--------5--------7--------------0--0--0--0------|
A--12------10-------8--------10-------------5--3--1--3------|
F---9------7--------5--------7---ALSO CAN BE----------------|

Pre Chorus
E----------------------------------1-----3--------3----1-------|
A----------------------------------1-----3--------3----1-------|
F----------------------------------0-----2--------0----0-------|
C----------------------------------0-----0--------5----0-------|
A----8--10---15---8----------------1-----3-------------1-------|
F----5---7---12---5--------OR----------------------------------|


Chorus
E----1---3---3---1--3--5-3-----------------------|
A----1---3---3---1--3--5-3-----------------------|
F----0---2---0---0--2--4-2-----------------------|
C----0---0---5---0--0--0-0-----------------------|
A----1---3-------1--3--5-3-----------------------|
F------------------------------------------------|

Everything Else is tabbed on this site. I wrote this for more of an acoustic guitar, but
it should work with electric distorted. Only thing left is a couple lead riffs played
throughout (The "solo" is already tabbed correctly by another user)

Verse Riff
E---------|
A--7h8----|  very quickly over and over
F---------|
C---------|
A---------|
F---------|

Pre Chorus Lead

E----1---1------3---3-----1---1---1---1------------------------|
A-----1-1-1-1----3-3-3-3---1-1-1-1-1-1-1-1---------------------|
F------0---0------0---0-----0---0---0---0----------------------|
C--------------------------------------------------------------|
A--------------------------------------------------------------|
F--------------------------------------------------------------|
Добавлено: 06.10.2013
Другие материалы по этой песне:

Страница создана 13.04.2012
http://primanota.ru/third-eye-blind/blinded-when-i-see-you-chords.htm
Привет, Гость.
Предлагаем пройти революционный курс по гитаре.
Подарок от PrimaNota.Ru, забирай!