PrimaNota.ru - самый крупный в мире бесплатный архив песенных текстов, аккордов, табулатур и нот


Therion - Lemuria - текст песни, таба, бас-таба, видео

Регистрация Запомнить меня
Войти через:  Facebook Google Twitter Vk Yandex Mail.ru

Therion - Lemuria - текст песни, таба, бас-таба, видео

Печатать
Просмотров: 1081
Авторы музыки: Christofer Johnsson

Title: Lemuria
Artist: Therion
Album: Lemuria/Sirius B
Tab: dead_locked@hotmail.com
Tuning: EBGDAE

Intro:
|--0--0--------0-----0-------1--1--------1-----1--------|
|--3----3--------3-----3-----3----3--------3-----2------|
|•-2------2--------2-----2---2------2--------2-----3---•|X2
|•-0--------0--------------0-0--------0--------------0-•|
|-------------------------------------------------------|
|-------------------------------------------------------|

Verse I: Gtr I&II
|--0--0--------0-----0-------1--1--------1-----1-------|
|--3----3--------3-----3-----3----3--------3-----2-----|
|•-2------2--------2-----2---2------2--------2-----3---|
|•-0--------0--------------0-0--------0--------------0-|
|------------------------------------------------------|
|------------------------------------------------------|

|--0--0--------0-----0-------0--0--------0-----0-------|
|--1----1--------1-----1-----2----2--------2-----2-----|
|--0------0--------0-----0---2------2--------2-----2--•|X2
|--2-------------------------2------------------------•|
|--3--------3--------------3-0--------0--------------0-|
|------------------------------------------------------|

In the ocean,deep down
Under raging waves, wrapped in memories, you'll find
Wrecks of stately ships, they all went astray

Bridge I:
Clean Gtr I
|---1---|---3---|---0---|---1---|
|---3---|---3---|---1---|---3---|
|•--2---|---0---|---0---|---2--•|
|•--0---|---0---|---2---|---0--•|X2
|---0---|---2---|---3---|---0---|
|---0---|---3---|---3---|---0---|
Gtr II
|----3-5-3---------3-5-6-6-5-3-3-3-5-3--------|
|--6-------5-6-6-6---------------------6-5-6--|
|-•-----------------------------------------•-|X2
|-•-----------------------------------------•-|
|---------------------------------------------|
|---------------------------------------------|

Verse II: Gtr I&II
|--0--0--------0-----0-------1--1--------1-----1-------|
|--3----3--------3-----3-----3----3--------3-----2-----|
|•-2------2--------2-----2---2------2--------2-----3---|
|•-0--------0--------------0-0--------0--------------0-|
|------------------------------------------------------|
|------------------------------------------------------|

|--0--0--------0-----0-------0--0--------0-----0-------|
|--1----1--------1-----1-----2----2--------2-----2-----|
|--0------0--------0-----0---2------2--------2-----2--•|X2
|--2-------------------------2------------------------•|
|--3--------3--------------3-0--------0--------------0-|
|------------------------------------------------------|

Captain, did you find
Land of Mu, Eldorado for the seaman?
Or did you sink in dreams (and) lose your ship
In the Sirens' symphony?

Chorus I:
Clean Gtr I&II
|---1---|---3---|---0---|---1---|
|---3---|---3---|---1---|---3---|
|•--2---|---0---|---0---|---2--•|
|•--0---|---0---|---2---|---0--•|X4
|---0---|---2---|---3---|---0---|
|---0---|---3---|---3---|---0---|

When the sailman's sailing away
He shows that the dream of Lemuria is true
A land lost he will find again
Hear the call from the depth of the anemone song
Do you dare to enter the ship?
Hear the call from below of an underwater world
Land of Mu is close to the stars
In the arms of the sea you will live as hypnotized


Bridge II:
Gtr I&II (Clean)
|--1~-|--0~-|--1~-|--0~-|--1~-|--0~-|--1~-|--0~-|
|--3~-|--3~-|--1~-|--2~-|--3~-|--3~-|--1~-|--2~-|
|--2~-|--2~-|--0~-|--2~-|--2~-|--2~-|--0~-|--2~-|
|--0~-|--0~-|--2~-|--2~-|--0~-|--0~-|--2~-|--2~-|
|--0~-|--0~-|--3~-|--0~-|--0~-|--0~-|--3~-|--0~-|
|--0~-|--0~-|--3~-|--0~-|--0~-|--0~-|--3~-|--0~-|

Call of Narayana, the seven-headed on
Lemuria, rise!

Chorus II:
Gtr I: Distor
|-----|-----|----------|
|-----|-----|----------|
|•----|-----|---------•|X4
|•-7--|-----|--5--5/7-•|
|--5--|--5--|--3--3/5--|
|-----|--3--|----------|
Gtr II: Distor
|----3-5-3---------3-5-6-6-5-3-3-3-5-3--------|
|--6-------5-6-6-6---------------------6-5-6--|
|•-------------------------------------------•|X4
|•-------------------------------------------•|
|---------------------------------------------|
|---------------------------------------------|

When the sailman's sailing away
He shows that the dream of Lemuria is true
A land lost he will find again
Hear the call from the depth of the anemone song
Do you dare to enter the ship?
Hear the call from below of an underwater world
Land of Mu is close to the stars
In the arms of the sea you will live as hypnotized

Bridge III:
Gtr I&II: Distor
|-----|-----|-----|-----|-----|-----|-----|
|-----|-----|-----|-----|-----|-----|-----|
|-----|-----|-----|-----|-----|-----|-----|
|--3--|-----|-----|--7--|--3--|-----|-----|
|--1--|--3--|--7--|--5--|--1--|--3--|--7--|
|-----|--1--|--5--|-----|-----|--1--|--5--|

Gtr I: Distor
|-----|-----|----------|
|-----|-----|----------|
|•----|-----|---------•|X2
|•-7--|-----|--5--5/7-•|
|--5--|--5--|--3--3/5--|
|-----|--3--|----------|
Gtr II: Distor
|----3-5-3---------3-5-6-6-5-3-3-3-5-3--------|
|--6-------5-6-6-6---------------------6-5-6--|
|•-------------------------------------------•|X2
|•-------------------------------------------•|
|---------------------------------------------|
|---------------------------------------------|
Gtr III: Distor
|---------------------------------------------|
|----5-6-5---------5-6-8-8-6-5-5-5-6-5--------|
|•-7-------5-7-7-7---------------------7-5-7-•|X2
|•-------------------------------------------•|
|---------------------------------------------|
|---------------------------------------------|

Gtr I&II: Distor
|-----|-----|----------|  |-----|
|-----|-----|----------|  |-----|
|•----|-----|---------•|X2|-----|
|•-7--|-----|--5--5/7-•|  |--7~-|
|--5--|--5--|--3--3/5--|  |--5~-|
|-----|--3--|----------|  |-----|
Добавлено: 16.03.2012
Другие материалы по этой песне:

Страница создана 01.03.2012
http://primanota.ru/therion/lemuria-chords.htm
Привет, Гость.
Предлагаем пройти революционный курс по гитаре.
Подарок от PrimaNota.Ru, забирай!