PrimaNota.ru - самый крупный в мире бесплатный архив песенных текстов, аккордов, табулатур и нот


Therion - Melez - аккорды и текст, таба, видео

Регистрация Запомнить меня
Войти через:  Facebook Google Twitter Vk Yandex Mail.ru

Therion - Melez - аккорды и текст, таба, видео

Печатать
Просмотров: 248
Авторы музыки: Christofer Johnsson
Авторы текста: Thomas Karlsson, Christofer Johnsson
Melez
Therion
[------------------------------------
------------------------------------ } repeat several times
------------------------------------
---2-2222^3(0)^333-5(0)--3----------

--------------------------------------------------------------------
--7-7-7-8-10-8-7----------------------------------------------------
-----------------6-6-7-8-7-6----------------------------------------
-----------------------------4-4-5-7-5-4----------------------------
-----------------------------------------4-5-7-5--------------------
--------------------------------------------------------------------

--------------------------------------------
--------------------------------------------
--------------------------------------------
--4--4--4--4--^--5--5--5--5---7--5----------
--4--4--4--4--^--5--5--5--5---7--5----------
--2--2--2--2--^--3--3--3--3---5--3----------]
Добавлено: 10.10.2013
Другие материалы по этой песне:

Страница создана 24.02.2012
http://primanota.ru/therion/melez-chords.htm
Привет, Гость.
Предлагаем пройти революционный курс по гитаре.
Подарок от PrimaNota.Ru, забирай!