PrimaNota.ru - самый крупный в мире бесплатный архив песенных текстов, аккордов, табулатур и нот


Therion - Birth Of Venus Illegitima - текст песни, таба, видео

Регистрация Запомнить меня
Войти через:  Facebook Google Twitter Vk Yandex Mail.ru

Therion - Birth Of Venus Illegitima - текст песни, таба, видео

Печатать
Просмотров: 206
Авторы музыки: Christofer Johnsson
Авторы текста: Thomas Karlsson
Acoustic Intro  
|---------------0-----|---------------0---3-1-0---|
|-----1---0-1---1-----|-----1---0-1---1-----------|
|-----2---0-2---2-----|-----2---0-2---2-----------|
|---------------2-----|---------------2-----------|
|-0-------------0-----|-0-------------0-----------|
|-------------------0-|---------------------------|

Verse - that's how Chris plays it  
|-----------------|-----------------|-----------------|
|-----------------|-----------------|-----------------|
|-----5---4-5-----|-----5---4-5-----|-----5---4-5-----|
|-----7---5-7-----|-----7---5-7-----|-----7---5-7-----|
|-0-0---0-----0-0-|-0-0---0-----0-0-|-0-0---0-----0-0-|
|-----------------|-----------------|-----------------|


|-----------------|-----------------|
|-----------------|-----------------|
|-----------------|-----------------|
|-3---------------|-3---------------|
|-3---------------|-3---------------|
|-1---------------|-1---------------|

|-----------------|-----------------|
|-----------------|-----------------|
|-----------------|-----------------|
|-2---------------|-2---------------|
|-2---------------|-2---------------|
|-0---------------|-0---------------|

Chorus
|---------|---------|---------|---------|
|---------|---------|---------|---------|
|---------|---------|---------|---------|
|-3-3-3-3-|-3-3-3-3-|-3-3-3-3-|-3-3-3-3-|
|-3-3-3-3-|-3-3-3-3-|-3-3-3-3-|-3-3-3-3-|
|-1-1-1-1-|-1-1-1-1-|-1-1-1-1-|-1-1-1-1-|

|---------|---------|---------|---------|
|---------|---------|---------|---------|
|---------|---------|---------|---------|
|-7-7-7-7-|-7-7-7-7-|-7-7-7-7-|-7-7-7-7-|
|-7-7-7-7-|-7-7-7-7-|-7-7-7-7-|-7-7-7-7-|
|-5-5-5-5-|-5-5-5-5-|-5-5-5-5-|-5-5-5-5-|

1st harmony
|---------------------------------------------------|
|---------------------------------------------------|
|-2-----4-5-7---5-4-2-----4-5---7-5-4-2---5-4-2-1---|
|---------------------------------------------------|
|---------------------------------------------------|
|---------------------------------------------------|
|                                                   |                                          
|---------------------------------------------------|
|-------3-5-6---5-3-------3-5---6-5-3-----5-3-------|
|-5-----------------5-----------------5-------5-4---|
|---------------------------------------------------|
|---------------------------------------------------|
|---------------------------------------------------|

rhythm guitar for the the 1st harmony
|---------------|-----------------|-----------------|
|---------------|-----------------|-----------------|
|-----5---4-5---|-5-----5---4-5---|-5-----5---4-5---|
|-----7---5-7---|-7-----7---5-7---|-7-----7---5-7---|
|-0-0---0-----0-|-----0---0-----0-|-----0---0-----0-|
|---------------|-----------------|-----------------|

|---|---------------|-----------------|
|---|---------------|-----------------|
|---|---------------|-----------------|
|---|-3-------------|-2---------------|
|-0-|-3-------------|-2---------------|
|---|-1-------------|-0---------------|

2nd harmony - there's another guitar playing it 1 octave lower  
|-------------------------------------------|
|-10-----12h13/15-13-----12-----10---9-10---|
|-------------------------------------------|
|-------------------------------------------|
|-------------------------------------------|
|-------------------------------------------|

rhythm guitar for the 2nd harmony
|---------|---------|---------|---------|
|---------|---------|---------|---------|
|---------|---------|---------|---------|
|-3-3-3-3-|-3-3-3-3-|-3-3-3-3-|-3/5-5/7-|
|-3-3-3-3-|-3-3-3-3-|-3-3-3-3-|---------|
|-1-1-1-1-|-1-1-1-1-|-1-1-1-1-|-1/3-3/5-|

|---------|---------|----------|----------|
|---------|---------|----------|----------|
|---------|---------|----------|----------|
|-7-7-7-7-|-7-7-7-7-|-7/9-9/10-|-10\9-9\7-|
|-7-7-7-7-|-7-7-7-7-|----------|----------|
|-5-5-5-5-|-5-5-5-5-|-5/7-7/8--|--8\7-7\5-|

After the 2nd harmony
|-----------------------------------------------------------|
|-----------9-9-------6-6-----------------------------------|
|-------------------------------9-9-------5-5-------4-4-----|
|-----------------------------------------------------------|
|-----------------------------------------------------------|
|-----------------------------------------------------------|
|                                                           |
|---------|---------|---------|---------|---------|---------|
|---------|---------|---------|---------|---------|---------|
|---------|---------|---------|---------|---------|---------|
|-2-2-2-2-|-2-2-2-2-|-2-2-2-2-|-2-2-2-2-|-2-2-2-2-|-2-2-2-2-|
|-2-2-2-2-|-2-2-2-2-|-2-2-2-2-|-2-2-2-2-|-2-2-2-2-|-2-2-2-2-|
|-0-0-0-0-|-0-0-0-0-|-0-0-0-0-|-0-0-0-0-|-0-0-0-0-|-0-0-0-0-|

3rd harmony - there are 2 guitars playing this 
|-20-----19---15-17--------------------12------------------|
|-----------------------10-12-13-12-10--------12------10---|
|--------------------------------------------------12------|
|----------------------------------------------------------|
|----------------------------------------------------------|
|----------------------------------------------------------|
tbarrettl@gmail.com

|----------------------------------------------------|
|------9-9-------------------------------------------|
|------------10-10---9-9-----------------------------|
|--------------------------10-10---9-9---7-7---6-6---|
|----------------------------------------------------|
|----------------------------------------------------|

|----------------------------------------------------|
|----------------------------------------------------|
|----------------------------------------------------|
|-2--------------------------------------------------|
|-0--------------------------------------------------|
|----------------------------------------------------|
|                                                    |
|-0--------------------------------------------------|
|-1--------------------------------------------------|
|-2--------------------------------------------------|
|-2--------------------------------------------------|
|-0--------------------------------------------------|
|----------------------------------------------------|
Добавлено: 23.02.2012
Другие материалы по этой песне:

Страница создана 22.02.2012
http://primanota.ru/therion/birth-of-venus-illegitima-chords.htm
Привет, Гость.
Предлагаем пройти революционный курс по гитаре.
Подарок от PrimaNota.Ru, забирай!