PrimaNota.ru - самый крупный в мире бесплатный архив песенных текстов, аккордов, табулатур и нот


Therion - Blood Of Kingu - текст песни, таба, бас-таба, видео

Регистрация Запомнить меня
Войти через:  Facebook Google Twitter Vk Yandex Mail.ru

Therion - Blood Of Kingu - текст песни, таба, бас-таба, видео

Печатать
Просмотров: 264
Band:            Therion
Album:           Sirius
Song:            The Blood of Kingu

Transcribed by:  Hebert Bravo
E-mail:          wizardhp_7@hotmail.com

Tune: C

INTRO
|----------------------------------| 
|----------------------------------|
|-6------7------6-------444--------|
|-4-444445-555554-44444-222--777---|  x6 
|----------------------------555---| 
|----------------------------------| 
    .....  .....  .....

Verse 1                                          _
|---------------------------------------------    |
|---------------------------------------------    |
|---------------------------------------------    |
|-6--------------------6--------------7-----9-    |
|-44-444-444...4-5-4---44-444-444-55555-77777-    |
|--------------------7------------------------    |
   . ... ...   . . . .  . ... ... ....  ....      |_x2
----------------------------------------------|   |
----------------------------------------------|   |
----------------------------------------------|   |
-9---------------------9--------------9-----7-|   |
-77-777-777...7-8-7----77-777-777-77777-55555-|   |
--------------------10------------------------|  _| 
  . ... ...   . . . .   . ... ... ....  ....

Guitar I (repeat INTRO x4)
Guitar II            
1,2,3rd time normal 4th time whit a.h                                   
                               |
|8h10p8h11p8h10p8h11p8...-11-10-8------------| 
|--------------------------------11-10-8-----|
|---------------------------------------10*~-|
|--------------------------------------------| 
|--------------------------------------------| 
|--------------------------------------------| 

Repeat INTRO   (x4)
Repeat Verse 1 (x2)

Guitar I
Verse 2
|--------------------------------------------------------| 
|--------------------------------------------------------|
|--------------------------------------------------------|
|--------------------------------------------------------| x2
|-4-444-444----6-666-666----7-777-777----99-77-6-666-666-| 
|-2-222-222...-4-444-444...-5-555-555...-77-55-4-444-444-| 
  . ... ...    . ... ...    . ... ...    .. .. . ... ... 

Guitar II 
|-------------------------------------------| 
|-7------------9-----------10------------9--|
|-6------------8------------9------------8--|
|-4------------6------------7------------6--| x2
|-4------------6------------7------------6--| 
|-------------------------------------------|

Chours                                            _
|------------------------------------------------  |
|------------------------------------------------  |
|-----4----4--4----4----4------------------------  |
|-22222222222222222222222----4----4--4----4----4-  |
|------------------------22222222222222222222222-  |
|------------------------------------------------  | 
  .... .... .. .... .... .... .... .. .... ....    |_x2
------------------------------------------------|  | 
------------------------------------------------|  | 
------------------------------------------------|  |
-----7----7--7----7----7------------------------|  |
-55555555555555555555555----7----7--7----7----7-|  |
------------------------55555555555555555555555-| _|
 .... .... .. .... .... .... .... .. .... ....

Repeat INTRO   (x4)
Repeat Verse 1 (x2)
Repeat Verse 2 (x2)
Repeat Chours  (x2)

Solo
|----------------------------------------------------------------------- 
|-----------------------------------------------------------------------
|---------17-18-19-18-----17--18-18/19~---------------------------------
|-16-18-19-----------19-16~~~~~--------16/19-18~-----18-19-18----------- 
|-----------------------------------------------16-19--------19-16—-16~- 
|-----------------------------------------------------------------15---- 

-------------------------| 
-------------------------|
-------------------------|
------18-19-18-----------| 
-16-19--------19-16—-16~-| 
-------------------15----| 

Chours 2

I'm not sure about this, 
I don't hear guitars in
this part, but in case        END
|---------------------|     |-----|
|---------------------|     |-----|
|---------------------|     |-----|
|-4-4444---4-4444-----|     |--4--| 
|-4-4444---4-4444-----|     |--4--|
|-2-2222---2-2222...--|     |--2--|
Добавлено: 31.03.2012
Другие материалы по этой песне:

Страница создана 19.03.2012
http://primanota.ru/therion/blood-of-kingu-chords.htm
Привет, Гость.
Предлагаем пройти революционный курс по гитаре.
Подарок от PrimaNota.Ru, забирай!