PrimaNota.ru - самый крупный в мире бесплатный архив песенных текстов, аккордов, табулатур и нот


There For Tomorrow - Stories - текст песни, таба, видео

Регистрация Запомнить меня
Войти через:  Facebook Google Twitter Vk Yandex Mail.ru

There For Tomorrow - Stories - текст песни, таба, видео

Печатать
Просмотров: 23
There For Tomorrow - Stories


Tabbed by: Skryde87 & SuzanLovesJessLisa        (Youtube)



        -Intro-

        Rhythm
        D#|-------------------------------------------------------|
        A#|-------------------------------------------------------|
        F#|-------------------------------------------------------|    
        C#|--7-0-7---9999999--7-0-7--9999999--444-5555------------|  begins after 2 times the lead
        A#|--7-0-7---9999999--7-0-7--9999999--444-5555------------|
        C#|--7-0-7---9999999--7-0-7--9999999--444-5555--0-0-7-9---|

        Lead
        d#|-------------------------14----14----------------|
        A#|-15----15----14----15----------------------------|
        F#|-------------------------------------11----11----|   4x
        C#|----12----12----12----12----12----12----11----11-|
        A#|-------------------------------------------------|
        C#|-------------------------------------------------|



        -Verse 1-

        Rhythm
        D#|-------------------------------------------------------|
        A#|-------------------------------------------------------|
        F#|---------------9-9-9-9-9-9-9-9-12-12-12-12-12-12-12-12-|
        C#|-9-------7-0-7-9-9-9-9-9-9-9-9-12-12-12-12-12-12-12-12-|
        G#|-9-(29x)-7-0-7-7-7-7-7-7-7-7-7-10-10-10-10-10-10-10-10-|
        C#|-9-------7-0-7-----------------------------------------|
            .       . . . . . . . . . . . .  .  .  .  .  .  .  .

        D#|-------------------------------------------------------|
        A#|-------------------------------------------------------|
        F#|-------------------------------------------------------|
        C#|-9-------7-0-7-----------------------------------------|
        G#|-9-(13x)-7-0-7-----------------------------------------|
        C#|-9-------7-0-7-----------------------------------------|
            .       . . .                                                   

        D#|-------------------------------------------------------|
        A#|-------------------------------------------------------|
        F#|---------------9-9-9-9-9-9-9-9-12-12-12-12-12-12-12-12-|       Lead begins here too
        C#|-9-------7-0-7-9-9-9-9-9-9-9-9-12-12-12-12-12-12-12-12-|
        G#|-9-(29x)-7-0-7-7-7-7-7-7-7-7-7-10-10-10-10-10-10-10-10-|
        C#|-9-------7-0-7-----------------------------------------|
            .       . . . . . . . . . . . .  .  .  .  .  .  .  .

        D#|-------------------------------------------------------|
        A#|-------------------------------------------------------|
        F#|-------------------------------------------------------|
        C#|-9-9-9-9-9-9-9-9-7-7-7-7-7-7-7-7-----------------------|
        G#|-9-9-9-9-9-9-9-9-7-7-7-7-7-7-7-7-----------------------|
        C#|-9-9-9-9-9-9-9-9-7-7-7-7-7-7-7-7-----------------------|
            . . . . . . . . . . . . . . . .

        Lead
        D#|--------2~------------------|
        A#|--------3~------------------|
        F#|---4~---4~---7~---4~---2~---|
        C#|---4~---2~---7~---4~---2~---|
        G#|---2~---2~---5~---2~---0~---|
        C#|----------------------------|



        -Pre-Chorus-
        D#|--------------|
        A#|---------3~---|
        F#|---------2~---|
        C#|---7~----4~---|
        G#|---5~----2~---|
        C#|---5~----2~---|



        -Chorus-
        
        Rhythm
        D#|-----------------------------------------------------------------------------------|
        A#|-----------------------------------------------------------------------------------|
        F#|-----------------------------------------------------------------------------------|
        C#|-xxxxxx--555555--777777--999999--0000000--555555--77777--99999--0000777--555--7~---|
        G#|-xxxxxx--555555--777777--999999--0000000--555555--77777--99999--0000444--555--7~---|
        C#|-xxxxxx--555555--777777--999999--0000000--555555--77777--99999--0000444--555--7~---|

        Lead
        D#|-12-14-12-------------12-14-12-------------------|
        A#|----------15-12~---------------15----------------|
        F#|----------------------------------14~------------|
        C#|-------------------------------------------------|
        G#|-------------------------------------------------|
        C#|-------------------------------------------------|
                                                                  2x, third time only first part
        eb|-12-14-12----------17-17-17----------17-17-17-17-|
        Bb|----------14-15-15----------14-15-15-------------|
        Gb|-------------------------------------------------|
        Db|-------------------------------------------------|
        Ab|-------------------------------------------------|
        Db|-------------------------------------------------|



        -Verse 2-

        Rhythm
        D#|-------------------------------------------------------|
        A#|-------------------------------------------------------|
        F#|---------------9-9-9-9-9-9-9-9-12-12-12-12-12-12-12-12-|
        C#|-9-------7-0-7-9-9-9-9-9-9-9-9-12-12-12-12-12-12-12-12-|
        G#|-9-(29x)-7-0-7-7-7-7-7-7-7-7-7-10-10-10-10-10-10-10-10-|
        C#|-9-------7-0-7-----------------------------------------|
            .       . . . . . . . . . . . .  .  .  .  .  .  .  .

        D#|-------------------------------------------------------|
        A#|-------------------------------------------------------|
        F#|-------------------------------------------------------|
        C#|-9-------7-0-7-----------------------------------------|
        G#|-9-(13x)-7-0-7-----------------------------------------|
        C#|-9-------7-0-7-----------------------------------------|

        Lead
        d#|-------------------------14----14----------------|
        A#|-15----15----14----15----------------------------|
        F#|-------------------------------------11----11----|   4x
        C#|----12----12----12----12----12----12----11----11-|
        A#|-------------------------------------------------|
        C#|-------------------------------------------------|


        Rhythm
        D#|-------------------------------|
        A#|-------------------------------|
        F#|-------------------------------|      
        C#|--77--22222--77777--55555--7---|
        G#|--77--22222--44444--55555--7---|
        C#|--77--22222--44444--55555--7---|

        Lead
        D#|--------------------------|
        A#|---10----14----15----17---|
        F#|---x-----x-----x-----x----|
        C#|---7-----11----12----14---|
        G#|--------------------------|
        C#|--------------------------|  



        -Chorus-



        -Bridge-

        Rhythm
        D#|------------------------------------------------------------------------|
        A#|------------------------------------------------------------------------|
        F#|------------------------------------------------------------------------|
        C#|---9999999--11.11.11.11--0000000--77777777--4444--777777777--77777777---|
        G#|---9999999--11.11.11.11--0000000--77777777--4444--555555555--77777777---|
        C#|---9999999--11.11.11.11--0000000--77777777--4444--555555555--77777777---|

        Lead
        D#|-------------------------------------------------|
        A#|-14-14-14-14-14-14-15-15-15-15-------------------|
        F#|-------------------------------14-14-14-14-14-14-|
        C#|-------------------------------------------------|
        G#|-------------------------------------------------|
        C#|-------------------------------------------------|

        D#|-------------------14-14-14-14-------------------|
        A#|-14-14-14-14-15-15-------------15-17-17-17-15----|
        F#|----------------------------------------------14-|
        G#|-------------------------------------------------|
        C#|-------------------------------------------------|
        G#|-------------------------------------------------|

        D#|-------------------------------------------------|
        A#|-14-14-14-14-14-14-15-15-15-15-------------------|
        F#|-------------------------------14-14-14-14-14-14-|
        G#|-------------------------------------------------|
        C#|-------------------------------------------------|
        G#|-------------------------------------------------|

        D#|-------------------14-14-14-14--------------------|
        A#|-14-14-14-14-15-15-------------15-17-17-17-15-15~-|
        F#|--------------------------------------------------|
        G#|--------------------------------------------------|
        C#|--------------------------------------------------|
        G#|--------------------------------------------------|



        -Pre-Chorus-



        -Chorus-
        D#|-------------------------------------------------------------------------|
        A#|-------------------------------------------------------------------------|
        F#|-------------------------------------------------------------------------|
        C#|-xxxxxx--555555--777777--999999--00000--555555--77777--99999--000--777---|
        G#|-xxxxxx--555555--777777--999999--00000--555555--77777--99999--000--444---|
        C#|-xxxxxx--555555--777777--999999--00000--555555--77777--99999--000--444---|


        -Chorus 2-

        Rhythm
        D#|-----------------------------------------------------------------------------------|
        A#|-----------------------------------------------------------------------------------|
        F#|-----------------------------------------------------------------------------------|
        C#|---555555--000000--777777--9999999--555555--000000--77777--99999--777--55555--7~---|
        G#|---555555- 000000--777777--9999999--555555--000000--77777--99999--444--55555--7~---|
        C#|---555555--000000--777777--9999999--555555--000000--77777--99999--444--55555--7~---|

        Lead
        D#|-12-14-12-------------12-14-12-------------------|
        A#|----------15-12~---------------15----------------|
        F#|----------------------------------14~------------|
        C#|-------------------------------------------------|
        G#|-------------------------------------------------|
        C#|-------------------------------------------------|
                                                                  2x, third time only first part
        eb|-12-14-12----------17-17-17----------17-17-17-17-|
        Bb|----------14-15-15----------14-15-15-------------|
        Gb|-------------------------------------------------|
        Db|-------------------------------------------------|
        Ab|-------------------------------------------------|
        Db|-------------------------------------------------|



        -Outro-
        d#|-------------------------14----14----------------|
        A#|-15----15----14----15----------------------------|
        F#|-------------------------------------11----11----|   2x
        C#|----12----12----12----12----12----12----11----11-|
        A#|-------------------------------------------------|
        C#|-------------------------------------------------|


        . = Palm mute
        x = mute
        ~ = let it ring
Добавлено: 22.03.2016
Вам также может быть интересно:
Другие материалы по этой песне:
  • Аккорды и текст

Страница создана 15.09.2014
http://primanota.ru/there-for-tomorrow/stories-chords.htm
Привет, Гость.
Предлагаем пройти революционный курс по гитаре.
Подарок от PrimaNota.Ru, забирай!