PrimaNota.ru - самый крупный в мире бесплатный архив песенных текстов, аккордов, табулатур и нот


There For Tomorrow - Sore Winner - таба, видео

Регистрация Запомнить меня
Войти через:  Facebook Google Twitter Vk Yandex Mail.ru

There For Tomorrow - Sore Winner - таба, видео

Печатать
Просмотров: 153
Tabbed by: Joshua Garcia (joshuag523@aol.com)

Tabs for the song: Sore Winner by There For Tomorrow
Please rate and let me know if you have any corrections. Thank you.


Tuning: Drop C# (C# G# C# F# A# D#)


Intro
Guitar 1:
D#||--------------------------------------|----------------------------------|
A#||--------------------------------------|----------------------------------|
F#||----------------------------------0~--|------------------------------0~--|
C#||--------4-------4-------4-----4-------|----4-------4-------4-----4-------|
G#||------------2-------2-------2---------|--------2-------2-------2---------|
C#||--2~--2---2---2---2---2---2-----2-----|--2---2---2---2---2---2-----2-----|


D#||----------------------------------|---------------------------|
A#||----------------------------------|------------0~-------------|
F#||------------------------------0~--|--------0--------------0~--|
C#||----4-------4-------4-----4-------|----4--------------4-------|
G#||--------0-------0-------0---------|--0---0---0------3---3-----|
C#||--0---0---0---0---0---0-----0-----|---------------------------|



Pre-Verse
Guitar 1:
D#||---------------------------------------------------|--------------------------|
A#||----7--------7--------8~-----7--------7--------8~--|----7--------7--------8~--|
F#||-------9--------9---------------9--------9---------|-------7--------7---------|
C#||--9-------9--------9-------9-------9--------9------|--7-------7--------7------|
G#||---------------------------------------------------|--------------------------|
C#||---------------------------------------------------|--------------------------|


Guitar 2:
D#||-----------------------------------------------------|
A#||-----------------------------------------------------|
F#||-----------------------------------------------------|
C#||--4-44-444-444-4444-44-444-444-4444-44-444-444-4444--|
G#||--2-22-222-222-2222-22-222-222-2220-00-000-000-0000--|
C#||-02-22-222-222-2222-22-222-222-2220-00-000-000-0000--|


Guitar 1/2:
D#||--------------------------|
A#||--------------------------|
F#||----44444444------555-----|
C#||--x-22222222----x-555-3~--|
G#||--x-00000000----x-333-3~--|
C#||--x-------------x-----3~--|



Verse
Guitar 1:
D#||------------------------------------------------------------------|
A#||------------------------------------------------------------------|
F#||------------------------------------------------------------------|
C#||------------------------------------------------------------------|
G#||---------------------------------------------------0-00-000-3-33--|
C#||--2-22-222-222-2222-22-222-222-2220-00-000-000-000----------------|


Guitar 1/2:
D#||---------------------------------------------------------------------------|
A#||--------7-77-777-777-7777-77-777-777-7777-77-777-777-7777-77-777-00000000--|
F#||----7---9-99-999-999-9999-99-999-999-9997-77-777-777-7777-77-777-44444444--|
C#||--x-7---9-99-999-999-9999-99-999-999-9997-77-777-777-7777-77-777-55555555--|
G#||--x------------------------------------------------------------------------|
C#||---------------------------------------------------------------------------|



Guitar 1:
D#||--------------------|-------------------------------------|------------------------------|
A#||--88888888-7777777--|-------------------------------------|--88888888-12121212-10101010--|
F#||--xxxxxxxx-xxxxxxx--|-------------------------------------|--xxxxxxxx-x-x-x-x--x-x-x-x---|
C#||--55555555-xxxxxxx--|--2~----4-------4-------4-------4----|--55555555-9-9-9-9--7-7-7-7---|
G#||-----------5555555--|--2~----2-------2-------2-------2----|------------------------------|
C#||--------------------|--2~--2---2-2-2---2-2-2---2-2-2---2--|------------------------------|
                               .   . . .   . . .   . . .   .

Guitar 2:
D#||--------------------|-------------------------------------|---------------------|
A#||--------------------|-------------------------------------|---------------------|
F#||--------------------|-------------------------------------|---------------------|
C#||--55555555-0000000--|--2~----2-------2-------2-------2----|--55555555-00000000--|
G#||--55555555-0000000--|--2~----2-------2-------2-------2----|--55555555-00000000--|
C#||--55555555-0000000--|--2~--2---2-2-2---2-2-2---2-2-2---2--|--55555555-00000000--|
                               .   . . .   . . .   . . .   .



Pre-Chorus
Guitar 1:
D#||---------------------------|--------------------|---------------------------|------|
A#||-----8--7---------7-----8--|--8-8-8-88-88-8888--|-----8--7---------7-----8--|--8~--|
F#||--5--------55--5-----5-----|--7-7-7-77-77-7777--|--5--------55--5-----5-----|--7~--|
C#||---------------------------|--------------------|---------------------------|------|
G#||---------------------------|--------------------|---------------------------|------|
C#||---------------------------|--------------------|---------------------------|------|


Guitar 2:
D#||---------------------------------------------------------|
A#||---------------------------------------------------------|
F#||--5-5-5555-55-5555-7-7-7777-77-7777-5-5-5555-55-5555-----|
C#||--5-5-5555-55-5555-7-7-7777-77-7777-5-5-5555-55-5555-0~--|
G#||--3-3-3333-33-3333-5-5-5555-55-5555-3-3-3333-33-3333-0~--|
C#||-----------------------------------------------------0~--|



Chorus
Guitar 1:
D#||--------------------------------------|----------------------------------|
A#||--------------------------------------|----------------------------------|
F#||----------------------------------0~--|------------------------------0~--|
C#||--------4-------4-------4-----4-------|----4-------4-------4-----4-------|
G#||------------2-------2-------2---------|--------2-------2-------2---------|
C#||--2~--2---2---2---2---2---2-----2-----|--2---2---2---2---2---2-----2-----|


D#||----------------------------------|
A#||----------------------------------|
F#||------------------------------0~--|
C#||----4-------4-------4-----4-------|
G#||--------0-------0-------0---------|
C#||--0---0---0---0---0---0-----0-----|


Guitar 2:
D#||-----------------------------------------------------|
A#||-----------------------------------------------------|
F#||-----------------------------------------------------|
C#||--4-44-444-444-4444-44-444-444-4444-44-444-444-4444--|
G#||--2-22-222-222-2222-22-222-222-2220-00-000-000-0000--|
C#||--2-22-222-222-2222-22-222-222-2220-00-000-000-0000--|


Guitar 1/2:
D#||--------------------------|
A#||--------------------------|
F#||----44444444------555-----|
C#||--x-22222222----x-555-3~--|
G#||--x-00000000----x-333-3~--|
C#||--x-------------x-----3~--|



Guitar 1:
D#||-----10---12----10---12----10---12----|
A#||--------------------------------------|
F#||--99----9----99----9----99----9----9--|
C#||--------------------------------------| x3
G#||--------------------------------------|
C#||--------------------------------------|


Guitar 2:
D#||-----------------------------------------------------|
A#||-----------------------------------------------------|
F#||-----------------------------------------------------|
C#||--4-44-444-444-4444-44-444-444-4444-44-444-444-4444--|
G#||--2-22-222-222-2222-22-222-222-2220-00-000-000-0000--|
C#||--2-22-222-222-2222-22-222-222-2220-00-000-000-0000--|


Guitar 1/2:
D#||--------------------------|
A#||--------------------------|
F#||----44444444------555-----|
C#||--x-22222222----x-555-3~--|
G#||--x-00000000----x-333-3~--|
C#||--x-------------x-----3~--|



Pre-Verse
Guitar 1:
D#||------------------------------------------------------------|
A#||------------------------------------------------------------|
F#||------------------------------------------------------------|
C#||--2---0-2/-----------------------2---0-2/-------------------|
G#||--2---0-2/--9-9-7-7-----10-10-9--2---0-2/--9-9-7-7-----10~--|
C#||--2---0-2/----------7-7----------2---0-2/----------9-9------|
                . . . . . . .  .  .            . . . . . .

Guitar 2:
D#||------------------------------------------------------------|
A#||------------------------------------------------------------|
F#||------------------------------------------------------------|
C#||--2---0-2-----------------------2---0-2----------------'4---|
G#||--2---0-2-----------------------2---0-2---------------------|
C#||--2---0-2-----------------------2---0-2---------------------|



Verse
Guitar 1:
D#||--10~---------7~------------------------------------------------|
A#||--8~~-------------8~-----------7~---------------8~----------8~--|
F#||--9~~---------------9~---------7~-------------9~----------9~----|
C#||-------------------------------9~---------7~---------10~--------|
G#||----------------------------------------------------------------|
C#||----------------------------------------------------------------|


Guitar 1/2:
D#||-------------------------------------------------------------------------|
A#||-------------------------------------------------------------------------|
F#||-------------------------------------------------------------------------|
C#||-------------------------------------------------------------------------|
G#||-----------------------------------------------------0-00-000-3-33-3333--|
C#||-0--2-22-222-222-2202-22-222-222-5550-00-000-000-000---------------------|



Guitar 1:
D#||--------------------|
A#||--88888888-7777777--|
F#||--xxxxxxxx-xxxxxxx--|
C#||--55555555-xxxxxxx--|
G#||-----------5555555--|
C#||--------------------|



Guitar 1:
D#||-------------------------------------|------------------------------|
A#||-------------------------------------|--88888888-12121212-10101010--|
F#||-------------------------------------|--xxxxxxxx-x-x-x-x--x-x-x-x---|
C#||--2~----4-------4-------4-------4----|--55555555-9-9-9-9--7-7-7-7---|
G#||--2~----2-------2-------2-------2----|------------------------------|
C#||--2~--2---2-2-2---2-2-2---2-2-2---2--|------------------------------|
          .   . . .   . . .   . . .   .

Guitar 2:
D#||-------------------------------------|---------------------|
A#||-------------------------------------|---------------------|
F#||-------------------------------------|---------------------|
C#||--2~----2-------2-------2-------2----|--55555555-00000000--|
G#||--2~----2-------2-------2-------2----|--55555555-00000000--|
C#||--2~--2---2-2-2---2-2-2---2-2-2---2--|--55555555-00000000--|
          .   . . .   . . .   . . .   .



Pre-Chorus
Guitar 1:
D#||---------------------------|--------------------|---------------------------|------|
A#||-----8--7---------7-----8--|--8-8-8-88-88-8888--|-----8--7---------7-----8--|--8~--|
F#||--5--------55--5-----5-----|--7-7-7-77-77-7777--|--5--------55--5-----5-----|--7~--|
C#||---------------------------|--------------------|---------------------------|------|
G#||---------------------------|--------------------|---------------------------|------|
C#||---------------------------|--------------------|---------------------------|------|


Guitar 2:
D#||---------------------------------------------------------|
A#||---------------------------------------------------------|
F#||--5-5-5555-55-5555-7-7-7777-77-7777-5-5-5555-55-5555-----|
C#||--5-5-5555-55-5555-7-7-7777-77-7777-5-5-5555-55-5555-0~--|
G#||--3-3-3333-33-3333-5-5-5555-55-5555-3-3-3333-33-3333-0~--|
C#||-----------------------------------------------------0~--|



Chorus
Guitar 1:
D#||--------------------------------------|----------------------------------|
A#||--------------------------------------|----------------------------------|
F#||----------------------------------0~--|------------------------------0~--|
C#||--------4-------4-------4-----4-------|----4-------4-------4-----4-------|
G#||------------2-------2-------2---------|--------2-------2-------2---------|
C#||--2~--2---2---2---2---2---2-----2-----|--2---2---2---2---2---2-----2-----|


D#||----------------------------------|
A#||----------------------------------|
F#||------------------------------0~--|
C#||----4-------4-------4-----4-------|
G#||--------0-------0-------0---------|
C#||--0---0---0---0---0---0-----0-----|


Guitar 2:
D#||-----------------------------------------------------|
A#||-----------------------------------------------------|
F#||-----------------------------------------------------|
C#||--4-44-444-444-4444-44-444-444-4444-44-444-444-4444--|
G#||--2-22-222-222-2222-22-222-222-2220-00-000-000-0000--|
C#||--2-22-222-222-2222-22-222-222-2220-00-000-000-0000--|


Guitar 1/2:
D#||--------------------------|
A#||--------------------------|
F#||----44444444------555-----|
C#||--x-22222222----x-555-3~--|
G#||--x-00000000----x-333-3~--|
C#||--x-------------x-----3~--|



Guitar 1:
D#||-----10---12----10---12----10---12----|
A#||--------------------------------------|
F#||--99----9----99----9----99----9----9--|
C#||--------------------------------------| x3
G#||--------------------------------------|
C#||--------------------------------------|


Guitar 2:
D#||-----------------------------------------------------|
A#||-----------------------------------------------------|
F#||-----------------------------------------------------|
C#||--4-44-444-444-4444-44-444-444-4444-44-444-444-4444--|
G#||--2-22-222-222-2222-22-222-222-2220-00-000-000-0000--|
C#||--2-22-222-222-2222-22-222-222-2220-00-000-000-0000--|


Guitar 1/2:
D#||--------------------------|
A#||--------------------------|
F#||----44444444------555-----|
C#||--x-22222222----x-555-3~--|
G#||--x-00000000----x-333-3~--|
C#||--x-------------x-----3~--|



Bridge
Guitar 1:
D#||-----10---12----10---12----10---12----|
A#||--------------------------------------|
F#||--99----9----99----9----99----9----9--|
C#||--------------------------------------| x2
G#||--------------------------------------|
C#||--------------------------------------|


Guitar 2:
D#||--10~-----------12------10~----------12------10~-----------12------10~-----------12-------12--|
A#||----------------------------------------------------------------------------------------------|
F#||--------9-11-12----9-11------9-11-12----9-11-------9-11-12----9-11-------9-11-12----11-12-----|
C#||----------------------------------------------------------------------------------------------|
G#||----------------------------------------------------------------------------------------------|
C#||----------------------------------------------------------------------------------------------|


Guitar 3:
D#||----------------|
A#||----------------|
F#||----------------|
C#||--2---0-2~---/--|
G#||--2---0-2~---/--|
C#||--2---0-2~---/--|



Guitar 1:
D#||------------------------------------------------------------|
A#||------------------------------------------------------------|
F#||------------------------------------------------------------|
C#||--2---0-2/-----------------------2---0-2--------------------|
G#||--2---0-2/--9-9-7-7-----10-10-9--2---0-2---------------10~--|
C#||--2---0-2/----------7-7----------2---0-2--------------------|
                . . . . . . .  .  .

Guitar 2:
D#||------------------------------------------------------------|
A#||------------------------------------------------------------|
F#||------------------------------------------------------------|
C#||--2---0-2/-----------------------2---0-2---------------'4~--|
G#||--2---0-2/--9-9-7-7-----10-10-9--2---0-2--------------------|
C#||--2---0-2/----------7-7----------2---0-2--------------------|
                . . . . . . .  .  .



Solo
Guitar 1:
D#||------------------------------------------------------------------|
A#||--------/7--------/7----------------/7--------/12-----------------|
F#||------------9---------9-----------------9----------12--11--12-11--|
C#||--9---9--------9---------9--7-9---9--------9----------------------|
G#||------------------------------------------------------------------|
C#||------------------------------------------------------------------|


D#||--------------------------------------------------------------------|
A#||--------------------------------------------------------------------|
F#||--------11-11-------11-11-------11-12-11---------12-12-------12-12--|
C#||--12-12-------12-12-------12-12----------14---14-------14-14--------|
G#||--------------------------------------------------------------------|
C#||--------------------------------------------------------------------|


D#||--------------14-14-10-10-10/12~--\--|
A#||--12-12------------------------------|
F#||--------12-12------------------------|
C#||-------------------------------------|
G#||-------------------------------------|
C#||-------------------------------------|


Guitar 2:
D#||---------------------------------------|----------------------------------------|
A#||---------------------------------------|----------------------------------------|
F#||---------------------------------------|------------------------------------5~--|
C#||---------------------------------------|------------------------------------5~--|
G#||------------------------------------0--|---------------------------22222222-3~--|
C#||--0-00-000-000-4542-22-222-22-44-55----|--0-00-000-000-4542-22-222--------------|



Bass Solo
Guitar 1/2:
D#||---------|
A#||---------|
F#||---------|
C#||--0-2-2--|
G#||--0-2-2--|
C#||--0-2-2--|



Guitar 1/2:
D#||-----------|------|---------------------|
A#||-----------|------|---------------------|
F#||-----------|------|----44444444---------|
C#||--2---0-2--|--0~--|--x-22222222------5--|
G#||--2---0-2--|--0~--|--x-00000000------5--|
C#||--2---0-2--|--0~--|--x---------------5--|



Chorus
Guitar 1:
D#||-----10---12----10---12----10---12----|
A#||--------------------------------------|
F#||--99----9----99----9----99----9----9--|
C#||--------------------------------------| x3
G#||--------------------------------------|
C#||--------------------------------------|


Guitar 2:
D#||-----------------------------------------------------|
A#||-----------------------------------------------------|
F#||-----------------------------------------------------|
C#||--4-44-444-444-4444-44-444-444-4444-44-444-444-4444--|
G#||--2-22-222-222-2222-22-222-222-2220-00-000-000-0000--|
C#||--2-22-222-222-2222-22-222-222-2220-00-000-000-0000--|


Guitar 1/2:
D#||--------------------------|
A#||--------------------------|
F#||----44444444------555-----|
C#||--x-22222222----x-555-3~--|
G#||--x-00000000----x-333-3~--|
C#||--x-------------x-----3~--|



Chorus/Outro
Guitar 1:
D#||-----10---12----10---12----10---12----|
A#||--------------------------------------|
F#||--99----9----99----9----99----9----9--|
C#||--------------------------------------| x3
G#||--------------------------------------|
C#||--------------------------------------|


Guitar 2:
D#||---------------------------------------------------------|
A#||---------------------------------------------------------|
F#||---------------------------------------------------------|
C#||--2---0-2--2-2-2-2-22---0-2--2-2-2-2-20---0-0-0-0-0-0-0--|
G#||--2---0-2--2-2-2-2-22---0-2--2-2-2-2-20---0-0-0-0-0-0-0--|
C#||--2---0-2--2-2-2-2-22---0-2--2-2-2-2-20---0-0-0-0-0-0-0--|


Guitar 1/2:
D#||--------------------------|
A#||--------------------------|
F#||----44444444--------------|
C#||--x-22222222-----------2--|
G#||--x-00000000-----------2--|
C#||--x------------------5-2--|




Tablature Legend
----------------
 h   - hammer-on
 p   - pull-off
 b   - bend
 r   - release bend
 *   - pinch harmonic
 '   - natural harmonic
 x   - mute note
 .   - palm mute
 /   - slide down
 \   - slide up
Добавлено: 22.08.2013
Другие материалы по этой песне:
  • Аккорды и текст

Страница создана 22.08.2013
http://primanota.ru/there-for-tomorrow/sore-winner-chords.htm
Привет, Гость.
Предлагаем пройти революционный курс по гитаре.
Подарок от PrimaNota.Ru, забирай!