PrimaNota.ru - самый крупный в мире бесплатный архив песенных текстов, аккордов, табулатур и нот


TheFatRat - Unity - таба, видео

Регистрация Запомнить меня
Войти через:  Facebook Google Twitter Vk Yandex Mail.ru

TheFatRat - Unity - таба, видео

Печатать
Просмотров: 278
Уроки эстрадного вокала в Санкт-Петербурге
-------------------------------------------------------------------------------
                             "UNITY"-TheFatRat
-------------------------------------------------------------------------------
Tabbed by:Lucas Mars
E-mail:lucaszeppelin@hotmail.com
THE TABS ARE FROM THIS COVER: 
https://www.youtube.com/watch?v=bk07m3SDKx4
Tuning:E

e|---------------------------------------------------------------------------|
B|--12----------------12---------------12----------------------12------------|
G|-----14-12-------------14-12------------14-12-----------12-14---14---------|
D|-----------14-12-14----------14-12-14----------14-12-14--------------------|
A|---------------------------------------------------------------------------|
E|---------------------------------------------------------------------------|

e|-------------------------------------------------------------15-17---------|
B|--12----------------12-------------------------12-15-17-15-17--------------|
G|-----14-12-------------14-12-------------12-14-----------------------------|
D|-----------14-12-14----------14-12-14-14-----------------------------------|
A|---------------------------------------------------------------------------|
E|---------------------------------------------------------------------------|

e|--19-17-15----------19-17-15----------19-17-15---------15-17-19-17---------|
B|-----------17-15-17----------17-15-17----------17-15-17--------------------|
G|---------------------------------------------------------------------------|
D|---------------------------------------------------------------------------|
A|---------------------------------------------------------------------------|
E|---------------------------------------------------------------------------|

e|--19-17-15----------19-17-15------------15-17-19-22-24-22-24-22-24---------|
B|-----------17-15-17----------17-15-17-17-----------------------------------|
G|---------------------------------------------------------------------------|
D|---------------------------------------------------------------------------|
A|---------------------------------------------------------------------------|
E|---------------------------------------------------------------------------|

e|---------------------15-----------------------------24-22-19---------------|
B|-15h17-17-17-17-15-17--17-15---15h17-17-17-17-15-17---------22-------------|
G|-----------------------------16--------------------------------------------|
D|---------------------------------------------------------------------------|
A|---------------------------------------------------------------------------|
E|---------------------------------------------------------------------------|

e|--17-19-19-19-19-17-19-22-19-17----17-19-19-19-19-17-19-22-19-17-----------|
B|-------------------------------20--------------------------------20--------|
B|---------------------------------------------------------------------------|
G|---------------------------------------------------------------------------|
D|---------------------------------------------------------------------------|
A|---------------------------------------------------------------------------|
E|---------------------------------------------------------------------------|

e|----------------------15------------------------------24-22-19-------------|
B|--15h17-17-17-17-15-17--17-15----15h17-17-17-17-15-17---------22-----------|
G|------------------------------16-------------------------------------------|
D|---------------------------------------------------------------------------|
A|---------------------------------------------------------------------------|
E|---------------------------------------------------------------------------|

e|--17h19-19-19-17----17-19-19-19-17----17-19-19-19-19-19--------------------|
B|-----------------20----------------20--------------------------------------|
G|---------------------------------------------------------------------------|
D|---------------------------------------------------------------------------|
A|---------------------------------------------------------------------------|
E|---------------------------------------------------------------------------|



e|---------------------------------------------------------------------------|
B|---------------------------------------------------------------------------|
G|---------------------------------------------------------------------------|
D|--9---------------9---------------9---------------------9------------------|
A|----12-10-----------12-10-----------12-10----------10-12--12---------------|
E|---------12-10-12---------12-10-12--------12-10-12-------------------------|

e|---------------------------------------------------------------------------|
B|---------------------------------------------------------------------------|
G|--------------------------------------------------------12-14--------------|
D|--9---------------9------------------------9-12-14-12-14-------------------|
A|----12-10-----------12-10------------10-12---------------------------------|
E|----------12-10-12--------12-10-12-12--------------------------------------|

DESPUÉS DE ESTA PARTE REPITE LO ANTERIOR
en la parte cantada el acorde base es MI o E


************************************

| /   slide up
| \   slide down
| h   hammer-on
| p   pull-off
| ~   vibrato
| +   harmonic
| x   Mute note
| b   Bend
| pb  Pre-bend
| br  Bend release
| pbr Pre-bend release
| brb Bend release bend

************************************
Добавлено: 12.05.2016
Другие материалы по этой песне:
  • Аккорды и текст

Страница создана 12.05.2016
http://primanota.ru/thefatrat/unity-chords.htm
Привет, Гость.
Предлагаем пройти революционный курс по гитаре.
Подарок от PrimaNota.Ru, забирай!