PrimaNota.ru - самый крупный в мире бесплатный архив песенных текстов, аккордов, табулатур и нот


The Wombats - How To Pack Your Bags And Leave - таба, бас-таба, видео

Регистрация Запомнить меня
Войти через:  Facebook Google Twitter Vk Yandex Mail.ru

The Wombats - How To Pack Your Bags And Leave - таба, бас-таба, видео

Печатать
Просмотров: 59
----------The Wombats----------
HOW TO PACK YOUR BAGS AND LEAVE
-------------------------------

A relatively new song I heard on youtube, I really liked it. Enjoy!

Tabbed by Yas.

============
Chord Chart:
============
A       5,7,7,6,5,5
A(v2)   x,12,14,14,14,x
A(v3)   x,12,14,14,16,x
A(v4)   x,12,14,14,17,x
E       0,2,2,1,0,0
E(v2)   x,7,9,9,9,7
E(v3)   0,x,x,x,x,x
G#m     4,6,6,4,4,4
Gm      3,5,5,3,3,3
G#m(v2) x,11,13,13,12,11
F#m     2,4,4,2,2,2
F#m(v2) x,9,11,11,10,9
F#m(v3) x,9,11,x,10,11
F#m(v4) x,9,11,x,10,12

======
Intro:
======

E                     G#m
I came downstairs one new years day,
F#m
As scatty as a westcoast mainline train
        E                   G#m         F#m
And you said something that I can still remember.

     E                      G#m
Your specs come off and the lights dim down,
           F#m
The floral wallpaper turns a vomit brown
        E               G#m                     F#m      G#m, Gm, F#m
And you look at me with distain beyond my comprehension.
                    E(v3)
You said you were ashamed..........


Followed By:
e|--------------------------------0-0-0-0-0----0-0-0-0-0-00-00-0-0-0-0-0----0-0-0-0-0-3-2-0-|
B|-----------0-0-----------0-0-0-/4-4-4-4-4-0-04-4-4-4-4-44-33-2-2-2-2-2-0-02-2-2-2-2-------|
G|-1-1-1-1-1-----1-1-1-1-1------------------------------------------------------------------|
D|------------------------------------------------------------------------------------------|
A|------------------------------------------------------------------------------------------|
E|------------------------------------------------------------------------------------------|

======
Verse:
======

E(v2)
Its not paranoia when they're after you,
      G#m(v2)                                      F#m(v2)
Its a ball and chain that should not be attached to me.
E(v2)
Why do we fight like kids in a school lunch queue,
     G#m(v2)                F#m(v2)       F#m(v3)  F#m(v4)
When you're my Dad and i am 23...... I am 23....

E(v3)
    ooo wah ooo wah


=======
Chorus:
=======

A(v2)          A(v3)     A(v4)
This is how to pack your bags and leave

Followed by: x2
e|--------------------------------|
B|------------------------4-3-2---|
G|--------------------------------|
D|--------------------------------|
A|----------------4-7-7-7---------|
E|--0-0-4-4-7-7-7-----------------|

A(v2)                                A(v3)              A(v4)
Sticks and stones wreck, but its the names that keep on breaking me.

e|----------------------------------------------------------------------------------|
B|----------------------------------------------------------------------------------|
G|----------------------------------------------------------------------------------|
D|----------------------------------------------------------------------------------|
A|----------------------------------------------------------------------------------|
E|-4-4-4-4-4-7-7-4-4-4-4-4-7-7-7-/11-11-11-11-7-11-11-11-11-1111-1010-9-9-9-9-12-12-|

continued:
e|----------------------------------------------------------------------------------|
B|----------------------------------------------------------------------------------|
G|----------------------------------------------------------------------------------|
D|----------------------------------------------------------------------------------|
A|----------10-9-7------------------------------------------------------------------|
E|-9-9-9-9-9------------------------------------------------------------------------|

Then:
e|-------------------------------|
B|-----------0-0-----------0-0-/-|
G|-1-1-1-1-1-----1-1-1-1-1-------|
D|-------------------------------|
A|-------------------------------|
E|-------------------------------|

==============
Keyboard part:
==============

E                   G#m
I can't believe my luck,
           F#m
There's an 8.15 to Euston, i hope the london fog swallows me up.
E                                        G#m
You could be right and it could be me to blame,
                 F#m
But how come you sat me down, dressed me like a clown,

You said you were ashamed.......

E(v3)
     ooo wah ooo wah
E(v3)
     ooo wah ooo wah

=========
Chorus 2:
=========

A(v2)          A(v3)     A(v4)
This is how to pack your bags and leave

Followed by: x2
e|--------------------------------|
B|------------------------4-3-2---|
G|--------------------------------|
D|--------------------------------|
A|----------------4-7-7-7---------|
E|--0-0-4-4-7-7-7-----------------|

A(v2)                                A(v3)              A(v4)    E(v3)
Sticks and stones wreck, but its the names that keep on breaking me.

======
Outro:
======
                     A(v2)
So if this will make Mum and Dad proud,
               A(v3)    G#m(v2) F#m(v2) E(v2)
then I'm quite happy to take plan B.
Добавлено: 31.08.2013
Другие материалы по этой песне:
  • Аккорды и текст

Страница создана 31.08.2013
http://primanota.ru/the-wombats/how-to-pack-your-bags-and-leave-chords.htm
Привет, Гость.
Предлагаем пройти революционный курс по гитаре.
Подарок от PrimaNota.Ru, забирай!