PrimaNota.ru - самый крупный в мире бесплатный архив песенных текстов, аккордов, табулатур и нот


The Wombats - Lets Dance To Joy Division Live - таба, видео

Регистрация Запомнить меня
Войти через:  Facebook Google Twitter Vk Yandex Mail.ru

The Wombats - Lets Dance To Joy Division Live - таба, видео

Печатать
Просмотров: 90
-------------------------------------------------------------------------------
			     Lets Dance To Joy Division Live - The Wombats
-------------------------------------------------------------------------------
Tabbed by: james gillanders

Tuning: standard EBGDAE

Verse:
        G      Bm     F      C
e|------3------2------1------0---------------------------------------------------|
B|------3------3------1------1---------------------------------------------------|
G|------4------4------2------0---------------------------------------------------|
D|------5------4------3------2---------------------------------------------------|
A|------5------2------3------3---------------------------------------------------|
E|------3------2------1------0---------------------------------------------------|

Alternate Verse:
        G      Bm     G      F#     F      C
e|------3------2------3------2------1------0-------------------------------------|
B|------3------3------3------2------1------1-------------------------------------|
G|------4------4------4------3------2------0-------------------------------------|
D|------5------4------5------4------3------2-------------------------------------|
A|------5------2------5------4------3------3-------------------------------------|
E|------3------2------3------2------1------0-------------------------------------|
(this is slightly harder but sounds alot better)

Chorus:
        G      Bm     F      Cm7
e|------3------2------1------3---------------------------------------------------|
B|------3------3------1------5---------------------------------------------------|
G|------4------4------2------5---------------------------------------------------|
D|------5------4------3------5---------------------------------------------------|
A|------5------2------3------3---------------------------------------------------|
E|------3------2------1------3---------------------------------------------------|

G
I'm back in Liverpool,
Bm
And everything seems the same,
F
But I worked something out last night,
C
That changed this little boys brain,
G
A small piece of advice,
Bm
That took twenty-two years in the make,
F
And I will break it for you now,
C
Please learn from my mistakes,
C
Please learn from my mistakes.

G
Let's dance to joy division,
Bm
And celebrate the irony,
F
Everything is going wrong,
Cm7
But we're so happy,
G
Let's dance to joy division,
Bm
And raise our glass to the ceiling,
F
'Cos this could all go so wrong,
Cm7
But we're so happy,
Cm7
Yeah we're so happy.

G
So if your ever feeling down,
Bm
Grab your purse and take a taxi,
F
To the darker side of town,
C
That's where we'll be,
G                             Bm
And we will wait for you and lead you through the dancefloor,
F
Up to the D.J booth,
C
You know what to ask for,
C
You know what to ask for.

G
Go ask for Joy Division,
Bm
And celebrate the irony,
F
Everything is going wrong,
Cm7
But we're so happy,
G
Go ask forjoy division,
Bm
And raise your glass to the ceiling,
F
'Cos this could all go so wrong,
Cm7
But we're so happy,
Cm7
So happy.

G
So let the love tear us apart,
Bm
I've found the cure for a broken heart,
F
Let it tear us apart,
C
let the love tear us apart,
G
I've found the cure for a broken heart,
Bm
Let it tear us apart,
F
(Let it tear us apart)
C

G
So let the love tear us apart,
Bm
I've found the cure for a broken heart,
F
Let it tear us apart,
C
(Let it tear us apart)
G
So let the love tear us apart,
Bm
I've found the cure for a broken heart,
F
Let it tear us apart,
C
Let it tear us apart,
G
Let it tear us apart.

G
Let's dance to joy division,
Bm
And celebrate the irony,
F
Everything is going wrong,
Cm7
But were so happy,
G
Let's dance to joy division,
Bm
And raise our glass to the ceiling,
F
'Cos this could all go so wrong,
Cm7
But we're so happy,
G
Yeah we're so happy,
Bm
So happy,
F
Yeah we're so happy,
Cm7
So happy,
Yeah we're so happy ( end on G )

Добавлено: 28.08.2013
Другие материалы по этой песне:
  • Аккорды и текст

Страница создана 28.08.2013
http://primanota.ru/the-wombats/lets-dance-to-joy-division-live-chords.htm
Привет, Гость.
Предлагаем пройти революционный курс по гитаре.
Подарок от PrimaNota.Ru, забирай!