PrimaNota.ru - самый крупный в мире бесплатный архив песенных текстов, аккордов, табулатур и нот


The Vaccines - Bad Mood - таба, видео

Регистрация Запомнить меня
Войти через:  Facebook Google Twitter Vk Yandex Mail.ru

The Vaccines - Bad Mood - таба, видео

Печатать
Просмотров: 261
-----------------------------------------------------------------------
                         Bad Mood - The Vaccines
-----------------------------------------------------------------------
Tabbed by: James Williams
E-mail: james.williams93@btinternet.com

This sounds best with two guitars, but it's also very fun to play with 
just one guitar. 
This is my first tab - I had a look for the tab for this, couldn't
find it so I decided to tab it out myself.
Constructive feedback is welcome.

Tuning: Standard

Verse:

e|--------------------------------------------------------------------|
B|--------------------------------------------------------------------|
G|-777777--------------------------777777----------999999-------------|
D|-777777-9-7-77---444444-9-7-77---777777-9-7-77---999999-9-7-77------|
A|-555555-9-7-77---444444-9-7-77---555555-9-7-77---777777-9-7-77------|
E|--------7-5-99---222222-7-5-99----------7-5-99----------7-5-99------|

e|--------------------------------------------------------------------|
B|--------------------------------------------------------------------|
G|-777777----------777777----------777777----------999999-------------|
D|-777777-9-7-77---777777-9-7-77---777777-9-7-77---999999-9-7-77------|
A|-555555-9-7-77---555555-9-7-77---555555-9-7-77---777777-9-7-77------|
E|--------7-5-99----------7-5-99----------7-5-99----------7-5-99------|

e|---------------------------------|
B|---------------------------------|    NB: Guitar 1 playing just a
G|-777777----------444444----------|    note of each chord sounds good
D|-777777-9-7-77---444444-9-7-77---|    over the top of this
A|-555555-9-7-77---222222-9-7-77---|    
E|--------7-5-99----------7-5-99---|

Bend Lick:

Guitar 1:

e|-----------------------------------------------------------------------|
B|-----------------------------------------------------------------------|
G|-11b-------10b--------9-8-------------7--7--10--12---------------------|
D|-----------------------------9-----------------------------------------|
A|-----------------------------9-(x12)-----------------------------------|
E|-----------------------------7-----------------------------------------|

Guitar 2:

e|-----------------------------------------------------------------------|
B|-----------------------------------------------------------------------|
G|-7--7-7----------------------------------------------------------------|
D|-7--7-7--7--7-7--9-----------------------------------------------------|
A|-5--5-5--7--7-7--9-(x16)-----------------------------------------------|
E|---------5--5-5--7-----------------------------------------------------|

Bridge:

e|-----------------------------------------------------------------------|
B|-----------------------------------------------------------------------|
G|-----------------------------------------------------------------------|
D|-99999999--77777777--99999999--77777777--99999999--77777777--99999999--|
A|-99999999--77777777--99999999--77777777--99999999--77777777--99999999--|
E|-77777777--55555555--77777777--55555555--77777777--55555555--77777777--|

e|----------|
B|----------|
G|----------|
D|-77777777-|
A|-77777777-|
E|-55555555-|

Solo:

e|-11--------11-------------11br--------------11br---------------|
B|------10-----------------------10-12-------------10-12----12---|
G|--------------11---------------------11----------------11------|
D|------------------14-13-----------------14---------------------|
A|---------------------------------------------------------------|
E|---------------------------------------------------------------|

e|----------17----------------17---------------------------------|
B|-14----14----14----14----14----14-----16-----------------------|
G|----14----------14----14----------14------11--14--16-----------|
D|---------------------------------------------------------------|
A|---------------------------------------------------------------|
E|---------------------------------------------------------------|

End Lick:

e|---------------------------------------------------------------|
B|------12--------------------------------------12---------------|
G|-11b-----11---9---------------------------11b----11--9---------|
D|------------------4---7---4---2---1----------------------4---7-|
A|--------------------------------------4------------------------|
E|---------------------------------------------------------------|

e|----------17----------------17---------------------------------|
B|-14----14----14----14----14----14-----16-----------------------|
G|----14----------14----14----------14------11--14--16-----------|
D|---------------------------------------------------------------|
A|---------------------------------------------------------------|
E|---------------------------------------------------------------|

Guitar 2 can play the same chords as in the
bridge section (listen for the timing)

Outro:

e|---------------|
B|---------------|
G|-777777--------|
D|-777777-9-7-77-|
A|-555555-9-7-77-|
E|--------7-5-99-|

Order of parts:

Verse
Bend Lick
Verse
Bend Lick
Bridge
Solo
Bend Lick
Verse
Bend Lick
End Lick
Outro


************************************

| /   slide up
| \   slide down
| h   hammer-on
| p   pull-off
| ~   vibrato
| +   harmonic
| x   Mute note
| b   Bend
| pb  Pre-bend
| br  Bend release
| pbr Pre-bend release
| brb Bend release bend

************************************
Добавлено: 01.10.2013
Другие материалы по этой песне:
  • Аккорды и текст

Страница создана 01.10.2013
http://primanota.ru/the-vaccines/bad-mood-chords.htm
Привет, Гость.
Предлагаем пройти революционный курс по гитаре.
Подарок от PrimaNota.Ru, забирай!