PrimaNota.ru - самый крупный в мире бесплатный архив песенных текстов, аккордов, табулатур и нот


The Vaccines - Lonely World - текст песни, таба, видео

Регистрация Запомнить меня
Войти через:  Facebook Google Twitter Vk Yandex Mail.ru

The Vaccines - Lonely World - текст песни, таба, видео

Печатать
Просмотров: 146
I went to see the vaccines a month ago, and I'm totally in adoration! :D I was 
quite surprised there were no tabs or even chords to this song, so I went ahead 
and worked them out :)
They aren't perfect or accurate, but they sound nice...

No capo

r=let it ring 
v= vibrato
s=slide


Freddie's part:

e|--------------------------------------------------------------|
B|-----------------------------------6--5--3--1--0--1--3-5------|
G|-0--4--5--9-7-5-2-0--4--5--9-7-5-2----------------------------|
D|--------------------------------------------------------------|
A|--------------------------------------------------------------|
E|--------------------------------------------------------------|


C G Am G x2
Dm C G x2

C               G           Am        G
I knew who you were, it was perfectly obvious
C          G        Am         G
I was uncomfortable playing it cool
      Dm   C    G C    Dm C    G
But I feel like I have al-ways known you
C          G           Am                G
I kept you close and I thought you would question it
C            G              Am             G
Young in the night, when we stare like the rest of them
Dm  C  G
God forbid
Dm C  G
Oh my God

        C
I would hold you close
               Am
'Cause it is a lonely world
              Dm
But would you want me too
               G
'Cause it is a lonely world

C          G              Am        G
Well I put off 'cause I'm painfully diffident
C           G         Am        G
I played it out in my head from afar
         Dm    C  G  C  Dm   C  G
But then trust me to go miss my moment
C            G        Am      G
You disappeared to my dissatisfaction
    C               G           Am          G
Oh, what could have been with a little more time?
Dm  C  G
Woe is me
Dm  C  G
Oh my God

        C
I would hold you close
               Am
'Cause it is a lonely world
              Dm
But would you want me too
               G
'Cause it is a lonely world

        C
I would hold you close
               Am
'Cause it is a lonely world
         Dm
If I was confident
               G
'Cause it is a lonely world

SOLO:

e|------------------------------| 
B|------------------------------|
G|---7-7-5--7-9-7-5-4-5-2-------|
D|----------------------0r------|
A|-3r---------------------------|
E|------------------------------|

e|------------------------------|
B|------------------------------|
G|---7-7-5--7-9-7-5-4-5-2-------|
D|----------------------3r------|
A|------------------------------|
E|------------------------------|

e|------------------------------|
B|------------------------------|
G|---7-7-5--7-9-7-5-4-5s12--9-7v|
D|------------------------------|
A|------------------------------|
E|------------------------------|

e|------------------------------|
B|------------------------------|
G|9-12-14--16-14-12-9v--9-12s15v|
D|------------------------------|
A|------------------------------|
E|------------------------------|

e|---------------------------------|
B|---------------------------------|
G|9-12-14--16-14-12-9v--9-7-9-10-12|
D|---------------------------------|
A|---------------------------------|
E|---------------------------------|


e|--------------------------------------------------------------|
B|---------------------------------------9---8--6--9---8--11v---|
G|-0--4--5--9-7-5-2-0--4--5--9-7-5-4-5---10--9--7--10--9--12v---|
D|--------------------------------------------------------------|
A|--------------------------------------------------------------|
E|--------------------------------------------------------------|


        C
I would hold you close
               Am
'Cause it is a lonely world
              Dm
But would you want me too
               G
'Cause it is a lonely world

        C
I would hold you close
               Am
'Cause it is a lonely world
         Dm
If I was confident
               G
'Cause it is a lonely world

end on C



Comment and rate!!
Добавлено: 03.08.2013
Другие материалы по этой песне:
  • Аккорды и текст

Страница создана 03.08.2013
http://primanota.ru/the-vaccines/lonely-world-chords.htm
Привет, Гость.
Предлагаем пройти революционный курс по гитаре.
Подарок от PrimaNota.Ru, забирай!