PrimaNota.ru - самый крупный в мире бесплатный архив песенных текстов, аккордов, табулатур и нот


The Sounds - The No No Song - таба, видео

Регистрация Запомнить меня
Войти через:  Facebook Google Twitter Vk Yandex Mail.ru

The Sounds - The No No Song - таба, видео

Печатать
Просмотров: 435
---------------------------------------------------------------------------
                        The Sounds - The no no song
                        Album : Something to die for
---------------------------------------------------------------------------
                                                 Tabbed by : VanessaFournier

Intro:
-----------------|-----------------|-----------------|-----------------|
-----------------|-----------------|-----------------|-----------------|
-----------------|-----------------|-----------------|-----------------| X2
-----------------|-----------------|-----------------|-----------------|
-----------------|-----------------|-----------------|-----------------|
-5-5-5-5-5-5-5-5-|-5-5-5-5-5-5-5-5-|-5-5-5-5-5-5-5-5-|-5-5-5-5-5-5-5-5-|


-----------------|-----------------|-----------------|-----------------|
-----------------|-----------------|-----------------|-----------------|
-----------------|-----------------|-7-7-7-7-7-7-7-7-|-----------------| X2
-9-9-9-9-9-9-9-9-|-5-5-5-5-5-5-5-5-|-7-7-7-7-7-7-7-7-|-7-7-7-7-7-7-7-7-|
-9-9-9-9-9-9-9-9-|-5-5-5-5-5-5-5-5-|-5-5-5-5-5-5-5-5-|-7-7-7-7-7-7-7-7-|
-7-7-7-7-7-7-7-7-|-3-3-3-3-3-3-3-3-|-----------------|-5-5-5-5-5-5-5-5-|


-----------------|-----------------|-----------------|-----------------|
-----------------|-----------------|-----------------|-----------------|
-----------------|-----------------|-----------------|-----------------|
-7-7-7-7-7-7-7-7-|-7-7-7-7-7-7-7-7-|-7-7-7-7-7-7-7-7-|-7-7-7-7-7-7-7-7-|
-7-7-7-7-7-7-7-7-|-7-7-7-7-7-7-7-7-|-7-7-7-7-7-7-7-7-|-7-7-7-7-7-7-7-7-|
-5-5-5-5-5-5-5-5-|-5-5-5-5-5-5-5-5-|-5-5-5-5-5-5-5-5-|-5-5-5-5-5-5-5-5-|

-----------------|-----------------|-----------------|-----------------|
-----------------|-----------------|-----------------|-----------------|
-7---------------|-----------------|-----------------|-----------------|
-7---------------|-----------------|-----------------|-----------------|
-5---------------|-----------------|-----------------|-------------14\-|
-----------------|-----------------|-----------------|-----------------|


Verse:
-----------------|-----------------|-------------------------|
-----------------|-----------------|-------------------------|
-----------------|-----------------|-------------------------|
-----------------|-----------------|-------------------------|
-5-5-5-5-5-5-5-5-|-9-9-9-9-9-9-9-9-|-14-14-14-14-14-14-12-12-|
-----------------|-----------------|-------------------------|

----------------------|                                            
----------------------|
----------------------|
----------------------|
-10-10-10-10-10-12-12-|
----------------------|

-----------------|-----------------|-------------------------|
-----------------|-----------------|-------------------------|
-----------------|-----------------|-------------------------|
-----------------|-----------------|-------------------------|
-5-5-5-5-5-5-5-5-|-9-9-9-9-9-9-9-9-|-14-14-14-14-14-14-14-14-|
-----------------|-----------------|-------------------------|

----------------------|                                            
----------------------|
----------------------|
----------------------|
-14-14-14-14-14-14-14-|
----------------------|


Interlude:
-----------------------|-----------------------|--------------------|
-----------------------|-----------------------|--------------------|
-11---------------11---|--9----------------9---|-7--------------7---|
-------12------12------|-------11------11------|-----9------9-------|
----------14-----------|----------12-----------|---------9----------|
-----------------------|-----------------------|--------------------|
  |    |_  |   |_   |     |    |_  |   |_  |     |   |_  |  |_  |

--------------------|
--------------------|
-7--------------7---|
-----9------9-------|
---------9----------|
--------------------|
 |   |_  |  |_  |   


Verse:
-----------------|-----------------|-------------------------|
-----------------|-----------------|-------------------------|
-----------------|-----------------|-------------------------|
-----------------|-----------------|-------------------------|
-5-5-5-5-5-5-5-5-|-9-9-9-9-9-9-9-9-|-14-14-14-14-14-14-14-14-|
-----------------|-----------------|-------------------------|

----------------------|                                            
----------------------|
----------------------|
----------------------|
-14-14-14-14-14-14-14-|
----------------------|


Pre-chorus:
------------------|---------------------|---------------------|---------|
------------------|---------------------|---------------------|---------|
-7----------------|-7---------------7---|-11------------------|---------|
-----9--------9---|-----9-------9-------|------12--------12---|-11 ~ ---|
---------10-------|---------10----------|-----------14--------|---------|
------------------|---------------------|---------------------|---------|
 |   |    |   |     |   |_   |  |_  |      |    |    |    |


Chorus:
-----------------|-----------------|-----------------|-----------------|
-----------------|-----------------|-----------------|-----------------|
-----------------|-----------------|-7-7-7-7-7-7-7-7-|-----------------| X3
-9-9-9-9-9-9-9-9-|-5-5-5-5-5-5-5-5-|-7-7-7-7-7-7-7-7-|-7-7-7-7-7-7-7-7-|
-9-9-9-9-9-9-9-9-|-5-5-5-5-5-5-5-5-|-5-5-5-5-5-5-5-5-|-7-7-7-7-7-7-7-7-|
-7-7-7-7-7-7-7-7-|-3-3-3-3-3-3-3-3-|-----------------|-5-5-5-5-5-5-5-5-|


-----------------|-----------------|-----------------|-----------------|
-----------------|-----------------|-----------------|-----------------|
-----------------|-----------------|-----------------|-----------------|
-7-7-7-7-7-7-7-7-|-7-7-7-7-7-7-7-7-|-7-7-7-7-7-7-7-7-|-7-7-7-7-7-7-7-7-|
-7-7-7-7-7-7-7-7-|-7-7-7-7-7-7-7-7-|-7-7-7-7-7-7-7-7-|-7-7-7-7-7-7-7-7-|
-5-5-5-5-5-5-5-5-|-5-5-5-5-5-5-5-5-|-5-5-5-5-5-5-5-5-|-5-5-5-5-5-5-5-5-|


-----------------|
-----------------|
-7---------------|
-7---------------|
-5---------------|
-----------------|


Verse

Pre-Chorus

Chorus

Interlude:
-----------------|-----------------|-----------------|-----------------|
-----------------|-----------------|-----------------|-----------------|
-7-7-7-7-7-7-7-7-|-----------------|-9-9-9-9-9-9-9-9-|-9-9-9-9-9-9-9-9-| X2
-7-7-7-7-7-7-7-7-|-7-7-7-7-7-7-7-7-|-9-9-9-9-9-9-9-9-|-9-9-9-9-9-9-9-9-|
-5-5-5-5-5-5-5-5-|-7-7-7-7-7-7-7-7-|-7-7-7-7-7-7-7-7-|-7-7-7-7-7-7-7-7-|
-----------------|-5-5-5-5-5-5-5-5-|-----------------|-----------------|


-----------------|-----------------|-----------------|---------------|
-----------------|-----------------|-----------------|---------------|
-----------------|-----------------|-9-9-9-9-9-9-9-9-|-9-----9-------|
-9-9-9-9-9-9-9-9-|-7-7-7-7-7-7-7-7-|-9-9-9-9-9-9-9-9-|-9--r--9--r----|
-9-9-9-9-9-9-9-9-|-7-7-7-7-7-7-7-7-|-7-7-7-7-7-7-7-7-|-7--r--7--r----|
-7-7-7-7-7-7-7-7-|-5-5-5-5-5-5-5-5-|-----------------|---------------|


-----------------|
-----------------|
-----------------|
-7---------------|
-7---------------|
-5---------------|


Chorus


Outro
-----------------|-------------------------|-----------------|
-----------------|-------------------------|-----------------|
-7-7-7-7-7-7-7-7-|-11-11-11-11-11-11-11-11-|-----------------|
-7-7-7-7-7-7-7-7-|-11-11-11-11-11-11-11-11-|-9-9-9-9-9-9-9-9-|
-5-5-5-5-5-5-5-5-|--9--9--9--9--9--9--9--9-|-9-9-9-9-9-9-9-9-|
-----------------|-------------------------|-7-7-7-7-7-7-7-7-|

-----------------|
-----------------|                                                X4
-----------------|
-9-9-9-9-9-9-9-9-|
-9-9-9-9-9-9-9-9-|
-7-7-7-7-7-7-7-7-|


-----------------|-----------------|-----------------|-----------------|
-----------------|-----------------|-----------------|-----------------|
-----------------|-----------------|-----------------|-----------------|
-----------------|-----------------|-----------------|-----------------|
-5---5---5---5---|-5---5---5---5---|-7---7---7---7---|-7---7---7---7---|
-5---5---5---5---|-5---5---5---5---|-7---7---7---7---|-7---7---7---7---|
-3---3---3---3---|-3---3---3---3---|-5---5---5---5---|-5---5---5---5---|

-----------------|
-----------------|
-7---------------|
-7---------------|
-5---------------|
-----------------|
Добавлено: 20.06.2012
Другие материалы по этой песне:
  • Аккорды и текст

Страница создана 20.06.2012
http://primanota.ru/the-sounds/the-no-no-song-chords.htm
Привет, Гость.
Предлагаем пройти революционный курс по гитаре.
Подарок от PrimaNota.Ru, забирай!