PrimaNota.ru - самый крупный в мире бесплатный архив песенных текстов, аккордов, табулатур и нот


The Sounds - Fire - текст песни, таба, бас-таба, видео

Регистрация Запомнить меня
Войти через:  Facebook Google Twitter Vk Yandex Mail.ru

The Sounds - Fire - текст песни, таба, бас-таба, видео

Печатать
Просмотров: 167
-----------------------------------------------------------------------
                           The Sounds - Fire
-----------------------------------------------------------------------

Tabbed by Vanessa Fournier
Email : rock_the_nation_666@hotmail.com -> For any request !

Verse 0:14

-----------------|-----------------|-----------------|----------------|
-----------------|-----------------|-----------------|----------------|
-----r-------r---|-----r-------r---|-----r-------r---|-----r---r------|
-2-2-r-2-2-2-r-2-|-2-2-r-2-2-2-r-2-|-2-2-r-2-2-2-r-2-|-2-2-r-2-r-2-2--|
-2-2---2-2-2---2-|-2-2---2-2-2---2-|-2-2---2-2-2---2-|-2-2---2---2-2--|
-0-0---0-0-0---0-|-0-0---0-0-0---0-|-0-0---0-0-0---0-|-0-0---0---0-0--|

0:28

-----------------|-----------------|-----------------|----------------|
-----------------|-----------------|-----------------|----------------|
-----r-------r---|-----r-------r---|-----r-------r---|------r--r--r---|
-2-2-r-2-2-2-r-2-|-2-2-r-2-2-2-r-2-|-2-2-r-2-2-2-r-2-|-2-2--r--r--r---|
-2-2---2-2-2---2-|-2-2---2-2-2---2-|-2-2---2-2-2---2-|-2-2------------|
-0-0---0-0-0---0-|-0-0---0-0-0---0-|-0-0---0-0-0---0-|-0-0------------|

Chorus 0:35

-----------------|-----------------|-----------------|-----------------|
-----------------|-----------------|-----------------|-----------------|
-----------------|-----------------|-4-4-4-4-4-4-4-4-|-----------------|
-6-6-6-6-6-6-6-6-|-2-2-2-2-2-2-2-2-|-4-4-4-4-4-4-4-4-|-4-4-4-4-4-4-4-4-| x2
-6-6-6-6-6-6-6-6-|-2-2-2-2-2-2-2-2-|-2-2-2-2-2-2-2-2-|-4-4-4-4-4-4-4-4-|
-4-4-4-4-4-4-4-4-|-0-0-0-0-0-0-0-0-|-----------------|-2-2-2-2-2-2-2-2-|

Verse 0:57

-----------------|-----------------|-----------------|----------------|
-----------------|-----------------|-----------------|----------------|
-----r-------r---|-----r-------r---|-----r-------r---|------r--r--r---|
-2-2-r-2-2-2-r-2-|-2-2-r-2-2-2-r-2-|-2-2-r-2-2-2-r-2-|-2-2--r--r--r---|
-2-2---2-2-2---2-|-2-2---2-2-2---2-|-2-2---2-2-2---2-|-2-2------------|
-0-0---0-0-0---0-|-0-0---0-0-0---0-|-0-0---0-0-0---0-|-0-0------------|

Replay Chorus x4

Interlude 1:54

-----------------|-----------------|-----------------|-----------------|    
-----------------|-----------------|-----------------|-----------------|
---r---r---------|---r---r---------|-4-r-4-r-4-4-4-4-|--r----r---------|
-6-r-6-r-6-6-6-6-|-6-r-6-r-4-4-4-4-|-4-r-4-r-4-4-4-4-|-2-r-2-r-2-2-2-2-| x2
-6---6---6-6-6-6-|-6---6---4-4-4-4-|-2---2---2-2-2-2-|-2---2---2-2-2-2-|
-4---4---4-4-4-4-|-4---4---2-2-2-2-|-----------------|-0---0---0-0-0-0-|

Replay Chorus x8

|r Rest
Добавлено: 08.07.2012
Другие материалы по этой песне:
  • Аккорды и текст

Страница создана 20.03.2012
http://primanota.ru/the-sounds/fire-chords.htm
Привет, Гость.
Предлагаем пройти революционный курс по гитаре.
Подарок от PrimaNota.Ru, забирай!