PrimaNota.ru - самый крупный в мире бесплатный архив песенных текстов, аккордов, табулатур и нот


The Seatbelts - Waltz For Zizi - таба, видео

Регистрация Запомнить меня
Войти через:  Facebook Google Twitter Vk Yandex Mail.ru

The Seatbelts - Waltz For Zizi - таба, видео

Печатать
Просмотров: 235
Уроки эстрадного вокала в Санкт-Петербурге
Date: Wed, 07 Jun 2006 02:53:48 +0200
From: Marc Hendrawidjaja (continues by Daniel Lortie)
Subject: c/cowboy_bebop/waltz_for_zizi.tab


Title: Waltz for Zizi
Album: Cowboy Bebop Soundtrack

! COMPLETE !

Measure 3/4

 Count:
 1   2   3  1   2   3   1   2   3   1   2   3   1   2   3
 |   x   x  |   x   x   |   x   x   |   x   x   |   x   x

|--------------2/4------2---------------------------------|
|--------00-0-------4---2---5---2---0---------------------|
|-----------1-----------2-----------1-----------1---------|
|-------------------------------2-------------------------|
|-----------------------0-------0---------------2---------|
|-----------0-----------------------0-------2---0-------2-|



 |   x   x  |   x   x   |   x   x   |   x   x   

|----0---2/-4---5---4---2----------------------|
|0----------2-----------2----------------------|
|1-------0--4-----------2----------------------|
|---------------------------------------1--3---|
|-----------4-----------------------4----------|
|0----------------------2-------2--------------|


 |   x   x  |   x   x   |   x   x   |   x   x

|----5---1/-4---2------------------------------|
|2----------2-------3---2-----------1----------|
|2----------2-----------2-----------2----------|
|-----------------------2-----------2----------|
|-----------------------0-------0---0-------0--|
|2---------------------------------------------|


 |   x   x  |   x   x   |   x   x   |   x   x

|----------------------------------------------|
|0---2--2/4-0-----------0---2--2/4--2----------|
|2----------2-----------1-----------2----------|
|----------------------------------------------|
|2----------2-------2---------------2---4---6--|
|-----------------------0----------------------|


 |   x   x   |   x   x   |   x   x   |   x   x

|---2/4------2---------------------------------|
|0-------4---2---5---2---0---------------------|
|1-----------2-----------1-----------1---------|
|----------------------------------------------|
|------------0---------------------------------|
|0-----------------------0-------2---0-------2-|


 |   x   x  |   x   x   |   x   x   |   x   x   

|----0---2/-4---5--4----2----------------------|
|0----------2-----------2----------------------|
|1-------0--4-----------2----------------------|
|---------------------------------------1--3---|
|-----------4-----------------------4----------|
|0----------------------2-------2--------------|

 |   x   x  |   x   x   |   x   x   |   x   x   

|----5---1/-4-------2/--9-------7/--12------9--|
|2----------2----------(7)----------11---------|
|2----------------------------------12---------|
|-----------4-----------6----------------------|
|-----------------------------------10---------|
|2---------------------------------------------|

 |   x   x  |   x   x   |   x   x   |   x   x   

|12--------14----------12----------------------|
|----------14----------------9-----------------|
|----------------------9---------9-------------|
|11--------13---------------(9)-------------6--|
|9------------------------------(11)--------7--|
|----------------------12-------------------0--|

Добавлено: 10.03.2012
Другие материалы по этой песне:
  • Аккорды и текст

Страница создана 10.03.2012
http://primanota.ru/the-seatbelts/waltz-for-zizi-chords.htm
Привет, Гость.
Предлагаем пройти революционный курс по гитаре.
Подарок от PrimaNota.Ru, забирай!